  0
SECTION
  2
HEADER
  9
$ACADVER
  1
AC1015
  9
$ACADMAINTVER
 70
    13
  9
$DWGCODEPAGE
  3
ANSI_1252
  9
$INSBASE
 10
0.0
 20
0.0
 30
0.0
  9
$EXTMIN
 10
4631.830510943891
 20
4807.740683719049
 30
-0.0000000000000053
  9
$EXTMAX
 10
4650.636583278725
 20
4829.47582434981
 30
0.0000000000000099
  9
$LIMMIN
 10
0.0
 20
0.0
  9
$LIMMAX
 10
420.0
 20
297.0
  9
$ORTHOMODE
 70
     1
  9
$REGENMODE
 70
     1
  9
$FILLMODE
 70
     1
  9
$QTEXTMODE
 70
     0
  9
$MIRRTEXT
 70
     1
  9
$LTSCALE
 40
25.4
  9
$ATTMODE
 70
     1
  9
$TEXTSIZE
 40
2.5
  9
$TRACEWID
 40
1.0
  9
$TEXTSTYLE
  7
STANDARD
  9
$CLAYER
  8
0
  9
$CELTYPE
  6
ByLayer
  9
$CECOLOR
 62
   256
  9
$CELTSCALE
 40
1.0
  9
$DISPSILH
 70
     0
  9
$DIMSCALE
 40
7.62
  9
$DIMASZ
 40
1.5
  9
$DIMEXO
 40
0.3125
  9
$DIMDLI
 40
0.7
  9
$DIMRND
 40
0.0
  9
$DIMDLE
 40
0.0
  9
$DIMEXE
 40
1.0
  9
$DIMTP
 40
0.0
  9
$DIMTM
 40
0.0
  9
$DIMTXT
 40
1.5
  9
$DIMCEN
 40
0.045
  9
$DIMTSZ
 40
0.0
  9
$DIMTOL
 70
     0
  9
$DIMLIM
 70
     0
  9
$DIMTIH
 70
     0
  9
$DIMTOH
 70
     0
  9
$DIMSE1
 70
     0
  9
$DIMSE2
 70
     0
  9
$DIMTAD
 70
     1
  9
$DIMZIN
 70
     0
  9
$DIMBLK
  1

  9
$DIMASO
 70
     1
  9
$DIMSHO
 70
     1
  9
$DIMPOST
  1

  9
$DIMAPOST
  1

  9
$DIMALT
 70
     0
  9
$DIMALTD
 70
     2
  9
$DIMALTF
 40
25.4
  9
$DIMLFAC
 40
1.0
  9
$DIMTOFL
 70
     0
  9
$DIMTVP
 40
0.0
  9
$DIMTIX
 70
     0
  9
$DIMSOXD
 70
     0
  9
$DIMSAH
 70
     0
  9
$DIMBLK1
  1

  9
$DIMBLK2
  1

  9
$DIMSTYLE
  2
B
  9
$DIMCLRD
 70
     0
  9
$DIMCLRE
 70
     0
  9
$DIMCLRT
 70
     0
  9
$DIMTFAC
 40
1.0
  9
$DIMGAP
 40
0.3
  9
$DIMJUST
 70
     0
  9
$DIMSD1
 70
     0
  9
$DIMSD2
 70
     0
  9
$DIMTOLJ
 70
     1
  9
$DIMTZIN
 70
     0
  9
$DIMALTZ
 70
     0
  9
$DIMALTTZ
 70
     0
  9
$DIMUPT
 70
     0
  9
$DIMDEC
 70
     1
  9
$DIMTDEC
 70
     4
  9
$DIMALTU
 70
     2
  9
$DIMALTTD
 70
     2
  9
$DIMTXSTY
  7
STANDARD
  9
$DIMAUNIT
 70
     0
  9
$DIMADEC
 70
     0
  9
$DIMALTRND
 40
0.0
  9
$DIMAZIN
 70
     0
  9
$DIMDSEP
 70
    46
  9
$DIMATFIT
 70
     2
  9
$DIMFRAC
 70
     0
  9
$DIMLDRBLK
  1

  9
$DIMLUNIT
 70
     2
  9
$DIMLWD
 70
    -2
  9
$DIMLWE
 70
    -2
  9
$DIMTMOVE
 70
     0
  9
$LUNITS
 70
     2
  9
$LUPREC
 70
     4
  9
$SKETCHINC
 40
1.0
  9
$FILLETRAD
 40
2.0
  9
$AUNITS
 70
     0
  9
$AUPREC
 70
     0
  9
$MENU
  1
.
  9
$ELEVATION
 40
0.0
  9
$PELEVATION
 40
0.0
  9
$THICKNESS
 40
0.0
  9
$LIMCHECK
 70
     0
  9
$CHAMFERA
 40
70.0
  9
$CHAMFERB
 40
70.0
  9
$CHAMFERC
 40
20.0
  9
$CHAMFERD
 40
0.0
  9
$SKPOLY
 70
     0
  9
$TDCREATE
 40
2452017.510381944
  9
$TDUCREATE
 40
2452017.718715278
  9
$TDUPDATE
 40
2455379.746567742
  9
$TDUUPDATE
 40
2455379.954901076
  9
$TDINDWG
 40
0.8677153819
  9
$TDUSRTIMER
 40
0.8677153819
  9
$USRTIMER
 70
     1
  9
$ANGBASE
 50
0.0
  9
$ANGDIR
 70
     0
  9
$PDMODE
 70
     0
  9
$PDSIZE
 40
0.0
  9
$PLINEWID
 40
0.0
  9
$SPLFRAME
 70
     0
  9
$SPLINETYPE
 70
     6
  9
$SPLINESEGS
 70
     8
  9
$HANDSEED
  5
8971
  9
$SURFTAB1
 70
     6
  9
$SURFTAB2
 70
     6
  9
$SURFTYPE
 70
     6
  9
$SURFU
 70
     6
  9
$SURFV
 70
     6
  9
$UCSBASE
  2

  9
$UCSNAME
  2

  9
$UCSORG
 10
0.0
 20
0.0
 30
0.0
  9
$UCSXDIR
 10
1.0
 20
0.0
 30
0.0
  9
$UCSYDIR
 10
0.0
 20
1.0
 30
0.0
  9
$UCSORTHOREF
  2

  9
$UCSORTHOVIEW
 70
     0
  9
$UCSORGTOP
 10
0.0
 20
0.0
 30
0.0
  9
$UCSORGBOTTOM
 10
0.0
 20
0.0
 30
0.0
  9
$UCSORGLEFT
 10
0.0
 20
0.0
 30
0.0
  9
$UCSORGRIGHT
 10
0.0
 20
0.0
 30
0.0
  9
$UCSORGFRONT
 10
0.0
 20
0.0
 30
0.0
  9
$UCSORGBACK
 10
0.0
 20
0.0
 30
0.0
  9
$PUCSBASE
  2

  9
$PUCSNAME
  2

  9
$PUCSORG
 10
0.0
 20
0.0
 30
0.0
  9
$PUCSXDIR
 10
1.0
 20
0.0
 30
0.0
  9
$PUCSYDIR
 10
0.0
 20
1.0
 30
0.0
  9
$PUCSORTHOREF
  2

  9
$PUCSORTHOVIEW
 70
     0
  9
$PUCSORGTOP
 10
0.0
 20
0.0
 30
0.0
  9
$PUCSORGBOTTOM
 10
0.0
 20
0.0
 30
0.0
  9
$PUCSORGLEFT
 10
0.0
 20
0.0
 30
0.0
  9
$PUCSORGRIGHT
 10
0.0
 20
0.0
 30
0.0
  9
$PUCSORGFRONT
 10
0.0
 20
0.0
 30
0.0
  9
$PUCSORGBACK
 10
0.0
 20
0.0
 30
0.0
  9
$USERI1
 70
     0
  9
$USERI2
 70
     0
  9
$USERI3
 70
     0
  9
$USERI4
 70
     0
  9
$USERI5
 70
     0
  9
$USERR1
 40
0.0
  9
$USERR2
 40
0.0
  9
$USERR3
 40
0.0
  9
$USERR4
 40
0.0
  9
$USERR5
 40
0.0
  9
$WORLDVIEW
 70
     1
  9
$SHADEDGE
 70
     3
  9
$SHADEDIF
 70
    70
  9
$TILEMODE
 70
     1
  9
$MAXACTVP
 70
    48
  9
$PINSBASE
 10
0.0
 20
0.0
 30
0.0
  9
$PLIMCHECK
 70
     0
  9
$PEXTMIN
 10
1.000000000000000E+20
 20
1.000000000000000E+20
 30
1.000000000000000E+20
  9
$PEXTMAX
 10
-1.000000000000000E+20
 20
-1.000000000000000E+20
 30
-1.000000000000000E+20
  9
$PLIMMIN
 10
0.0
 20
0.0
  9
$PLIMMAX
 10
420.0
 20
297.0
  9
$UNITMODE
 70
     0
  9
$VISRETAIN
 70
     1
  9
$PLINEGEN
 70
     0
  9
$PSLTSCALE
 70
     1
  9
$TREEDEPTH
 70
  3020
  9
$CMLSTYLE
  2
STANDARD
  9
$CMLJUST
 70
     0
  9
$CMLSCALE
 40
20.0
  9
$PROXYGRAPHICS
 70
     1
  9
$MEASUREMENT
 70
     1
  9
$CELWEIGHT
370
    -1
  9
$ENDCAPS
280
     0
  9
$JOINSTYLE
280
     0
  9
$LWDISPLAY
290
     0
  9
$INSUNITS
 70
     0
  9
$HYPERLINKBASE
  1

  9
$STYLESHEET
  1

  9
$XEDIT
290
     0
  9
$CEPSNTYPE
380
     0
  9
$PSTYLEMODE
290
     1
  9
$FINGERPRINTGUID
  2
{CCC271E6-3ED0-4FEE-B5B3-E156D55DB1E3}
  9
$VERSIONGUID
  2
{D79E0F5C-85B6-4E3E-8721-7D29DC1A7C92}
  9
$EXTNAMES
290
     1
  9
$PSVPSCALE
 40
0.0
  9
$OLESTARTUP
290
     0
  0
ENDSEC
  0
SECTION
  2
CLASSES
  0
CLASS
  1
DICTIONARYVAR
  2
AcDbDictionaryVar
  3
AutoCAD 2000
 90
        0
280
     0
281
     0
  0
CLASS
  1
ACDBDICTIONARYWDFLT
  2
AcDbDictionaryWithDefault
  3
AutoCAD 2000
 90
        0
280
     0
281
     0
  0
CLASS
  1
ACDBPLACEHOLDER
  2
AcDbPlaceHolder
  3
AutoCAD 2000
 90
        0
280
     0
281
     0
  0
CLASS
  1
LAYOUT
  2
AcDbLayout
  3
AutoCAD 2000
 90
        0
280
     0
281
     0
  0
CLASS
  1
LWPOLYLINE
  2
AcDbPolyline
  3
AutoCAD 2000
 90
    32768
280
     0
281
     1
  0
CLASS
  1
IMAGE
  2
AcDbRasterImage
  3
ISM
 90
    32895
280
     0
281
     1
  0
CLASS
  1
OLE2FRAME
  2
AcDbOle2Frame
  3
AutoCAD 2000
 90
    32768
280
     0
281
     1
  0
CLASS
  1
HATCH
  2
AcDbHatch
  3
AutoCAD 2000
 90
    32768
280
     0
281
     1
  0
CLASS
  1
RASTERVARIABLES
  2
AcDbRasterVariables
  3
ISM
 90
    32768
280
     0
281
     0
  0
CLASS
  1
IMAGEDEF
  2
AcDbRasterImageDef
  3
ISM
 90
    32768
280
     0
281
     0
  0
CLASS
  1
IMAGEDEF_REACTOR
  2
AcDbRasterImageDefReactor
  3
ISM
 90
    32769
280
     0
281
     0
  0
CLASS
  1
IDBUFFER
  2
AcDbIdBuffer
  3
AutoCAD 2000
 90
    32768
280
     0
281
     0
  0
CLASS
  1
SPATIAL_FILTER
  2
AcDbSpatialFilter
  3
AutoCAD 2000
 90
    32768
280
     0
281
     0
  0
CLASS
  1
XRECORD
  2
AcDbXrecord
  3
AutoCAD 2000
 90
    32768
280
     0
281
     0
  0
CLASS
  1
SORTENTSTABLE
  2
AcDbSortentsTable
  3
AutoCAD 2000
 90
    32768
280
     0
281
     0
  0
CLASS
  1
LAYER_INDEX
  2
AcDbLayerIndex
  3
AutoCAD 2000
 90
    32768
280
     0
281
     0
  0
CLASS
  1
SPATIAL_INDEX
  2
AcDbSpatialIndex
  3
AutoCAD 2000
 90
    32768
280
     0
281
     0
  0
CLASS
  1
OBJECT_PTR
  2
CAseDLPNTableRecord
  3
ASE-LPNTableRecord
 90
    32769
280
     0
281
     0
  0
CLASS
  1
PLOTSETTINGS
  2
AcDbPlotSettings
  3
AutoCAD 2000
 90
    32768
280
     0
281
     0
  0
CLASS
  1
VBA_PROJECT
  2
AcDbVbaProject
  3
acadvba
 90
    32768
280
     0
281
     0
  0
CLASS
  1
WIPEOUT
  2
AcDbWipeout
  3
WipeOut|AutoCAD Express Tool|expresstools@autodesk.com
 90
    32895
280
     0
281
     1
  0
CLASS
  1
WIPEOUTVARIABLES
  2
AcDbWipeoutVariables
  3
WipeOut|AutoCAD Express Tool|expresstools@autodesk.com
 90
        0
280
     0
281
     0
  0
CLASS
  1
RTEXT
  2
RText
  3
RText|AutoCAD Express Tool|expresstools@autodesk.com
 90
    32768
280
     0
281
     1
  0
CLASS
  1
ARCALIGNEDTEXT
  2
AcDbArcAlignedText
  3
ATEXT|AutoCAD Express Tool|expresstools@autodesk.com
 90
    32768
280
     0
281
     1
  0
CLASS
  1
DIMASSOC
  2
AcDbDimAssoc
  3
"AcDbDimAssoc|Product Desc:     AcDim ARX App For Dimension|Company:          Autodesk, Inc.|WEB Address:      www.autodesk.com"
 90
    32768
280
     0
281
     0
  0
ENDSEC
  0
SECTION
  2
TABLES
  0
TABLE
  2
VPORT
  5
8
330
0
100
AcDbSymbolTable
 70
     4
  0
VPORT
  5
8970
330
8
100
AcDbSymbolTableRecord
100
AcDbViewportTableRecord
  2
*Active
 70
     0
 10
0.0
 20
0.0
 11
1.0
 21
1.0
 12
4641.233547111307
 22
4818.608254034429
 13
0.0
 23
0.0
 14
10.0
 24
10.0
 15
10.0
 25
10.0
 16
0.0
 26
0.0
 36
1.0
 17
0.0
 27
0.0
 37
0.0
 40
21.89594315084105
 41
1.965432098765431
 42
50.0
 43
0.0
 44
0.0
 50
0.0
 51
0.0
 71
     0
 72
   100
 73
     1
 74
     1
 75
     0
 76
     0
 77
     0
 78
     0
281
     0
 65
     0
110
0.0
120
0.0
130
0.0
111
1.0
121
0.0
131
0.0
112
0.0
122
1.0
132
0.0
 79
     0
146
0.0
  0
ENDTAB
  0
TABLE
  2
LTYPE
  5
5
330
0
100
AcDbSymbolTable
 70
     4
  0
LTYPE
  5
12
330
5
100
AcDbSymbolTableRecord
100
AcDbLinetypeTableRecord
  2
ByBlock
 70
     0
  3

 72
    65
 73
     0
 40
0.0
  0
LTYPE
  5
13
330
5
100
AcDbSymbolTableRecord
100
AcDbLinetypeTableRecord
  2
ByLayer
 70
     0
  3

 72
    65
 73
     0
 40
0.0
  0
LTYPE
  5
14
330
5
100
AcDbSymbolTableRecord
100
AcDbLinetypeTableRecord
  2
CONTINUOUS
 70
     0
  3
Solid line
 72
    65
 73
     0
 40
0.0
  0
LTYPE
  5
7BD7
330
5
100
AcDbSymbolTableRecord
100
AcDbLinetypeTableRecord
  2
CENTER2
 70
     0
  3
___ _ ___ _ ___ _ ___ _ ___ _ ___ _ ___ _ ___ _
 72
    65
 73
     4
 40
1.125
 49
0.75
 74
     0
 49
-0.125
 74
     0
 49
0.125
 74
     0
 49
-0.125
 74
     0
  0
LTYPE
  5
7BD8
330
5
100
AcDbSymbolTableRecord
100
AcDbLinetypeTableRecord
  2
DASHED2
 70
     0
  3
_ _ _ _ _ _ _ _ _ _ _ _ _ _ _ _ _ _ _ _ _ _ _ _
 72
    65
 73
     2
 40
0.375
 49
0.25
 74
     0
 49
-0.125
 74
     0
  0
LTYPE
  5
82AA
330
5
100
AcDbSymbolTableRecord
100
AcDbLinetypeTableRecord
  2
PHANTOM2
 70
     0
  3
___ _ _ ___ _ _ ___ _ _ ___ _ _ ___ _ _ ___ _ _
 72
    65
 73
     6
 40
1.25
 49
0.625
 74
     0
 49
-0.125
 74
     0
 49
0.125
 74
     0
 49
-0.125
 74
     0
 49
0.125
 74
     0
 49
-0.125
 74
     0
  0
ENDTAB
  0
TABLE
  2
LAYER
  5
2
330
0
100
AcDbSymbolTable
 70
     8
  0
LAYER
  5
E
330
2
100
AcDbSymbolTableRecord
100
AcDbLayerTableRecord
  2
0
 70
     0
 62
     7
  6
CONTINUOUS
370
    -3
390
538E
  0
LAYER
  5
552
330
2
100
AcDbSymbolTableRecord
100
AcDbLayerTableRecord
  2
DEFPOINTS
 70
     0
 62
     5
  6
CONTINUOUS
290
     0
370
    -3
390
538E
  0
LAYER
  5
7BD9
330
2
100
AcDbSymbolTableRecord
100
AcDbLayerTableRecord
  2
BOM
 70
     0
 62
   126
  6
CONTINUOUS
370
    -3
390
538E
  0
LAYER
  5
7BDA
330
2
100
AcDbSymbolTableRecord
100
AcDbLayerTableRecord
  2
DESHED
 70
     0
 62
   190
  6
DASHED2
370
    -3
390
538E
  0
LAYER
  5
7BDB
330
2
100
AcDbSymbolTableRecord
100
AcDbLayerTableRecord
  2
CENTER
 70
     0
 62
     1
  6
CENTER2
370
    -3
390
538E
  0
LAYER
  5
7BDC
330
2
100
AcDbSymbolTableRecord
100
AcDbLayerTableRecord
  2
DIM
 70
     0
 62
     1
  6
CONTINUOUS
370
    -3
390
538E
  0
LAYER
  5
7BDD
330
2
100
AcDbSymbolTableRecord
100
AcDbLayerTableRecord
  2
HATCH
 70
     0
 62
     3
  6
CONTINUOUS
370
    -3
390
538E
  0
LAYER
  5
7BDE
330
2
100
AcDbSymbolTableRecord
100
AcDbLayerTableRecord
  2
DRAW
 70
     0
 62
     5
  6
CONTINUOUS
370
    -3
390
538E
  0
ENDTAB
  0
TABLE
  2
STYLE
  5
3
330
0
100
AcDbSymbolTable
 70
     4
  0
STYLE
  5
F
330
3
100
AcDbSymbolTableRecord
100
AcDbTextStyleTableRecord
  2
STANDARD
 70
     0
 40
0.0
 41
1.0
 50
0.0
 71
     0
 42
2.5
  3
TXT
  4

  0
STYLE
  5
7BDF
330
3
100
AcDbSymbolTableRecord
100
AcDbTextStyleTableRecord
  2
ROMANS
 70
     0
 40
0.0
 41
1.0
 50
0.0
 71
     0
 42
0.12
  3
ROMANS
  4

  0
STYLE
  5
7BE0
330
3
100
AcDbSymbolTableRecord
100
AcDbTextStyleTableRecord
  2
SANSSERIFBOLDOBLIQUE
 70
     0
 40
0.0
 41
1.0
 50
0.0
 71
     0
 42
0.2
  3
SASBO___.PFB
  4

  0
STYLE
  5
7BE1
330
3
100
AcDbSymbolTableRecord
100
AcDbTextStyleTableRecord
  2
A
 70
     0
 40
11.0
 41
0.7
 50
0.0
 71
     0
 42
0.2
  3

  4

1001
ACAD
1000
FangSong_GB2312
1071
    34353
  0
ENDTAB
  0
TABLE
  2
VIEW
  5
6
330
0
100
AcDbSymbolTable
 70
     0
  0
ENDTAB
  0
TABLE
  2
UCS
  5
7
330
0
100
AcDbSymbolTable
 70
     0
  0
ENDTAB
  0
TABLE
  2
APPID
  5
9
330
0
100
AcDbSymbolTable
 70
     2
  0
APPID
  5
10
330
9
100
AcDbSymbolTableRecord
100
AcDbRegAppTableRecord
  2
ACAD
 70
     0
  0
APPID
  5
80FD
330
9
100
AcDbSymbolTableRecord
100
AcDbRegAppTableRecord
  2
DCO15
 70
     0
  0
ENDTAB
  0
TABLE
  2
DIMSTYLE
  5
A
330
0
100
AcDbSymbolTable
 70
    41
100
AcDbDimStyleTable
 71
     1
340
22
  0
DIMSTYLE
105
1D
330
A
100
AcDbSymbolTableRecord
100
AcDbDimStyleTableRecord
  2
STANDARD
 70
     0
340
F
  0
DIMSTYLE
105
22
330
A
100
AcDbSymbolTableRecord
100
AcDbDimStyleTableRecord
  2
B
 70
     0
 40
7.62
 41
1.5
 42
0.3125
 43
0.7
 44
1.0
 73
     0
 74
     0
 77
     1
140
1.5
141
0.045
147
0.3
271
     1
289
     2
340
F
  0
DIMSTYLE
105
7BE2
330
A
100
AcDbSymbolTableRecord
100
AcDbDimStyleTableRecord
  2
A
 70
     0
 40
7.62
 41
2.0
 42
0.6
 43
0.7
 44
1.5
 73
     0
 74
     0
 77
     1
140
1.9
141
0.1
147
0.6
271
     2
289
     2
340
F
  0
DIMSTYLE
105
7BE3
330
A
100
AcDbSymbolTableRecord
100
AcDbDimStyleTableRecord
  2
S
 70
     0
  3
M<> \M+5C9EE30
 40
7.62
 41
2.0
 42
0.6
 43
0.7
 44
1.5
 73
     0
 74
     0
 77
     1
140
1.9
141
0.1
147
0.6
271
     0
289
     2
340
7BE1
  0
DIMSTYLE
105
7BE4
330
A
100
AcDbSymbolTableRecord
100
AcDbDimStyleTableRecord
  2
S2
 70
     0
  3
2-M<> \M+5C9EE30
 40
7.62
 41
2.0
 42
0.6
 43
0.7
 44
1.5
 73
     0
 74
     0
 77
     1
140
1.9
141
0.1
147
0.6
271
     0
289
     2
340
7BE1
  0
DIMSTYLE
105
7BE5
330
A
100
AcDbSymbolTableRecord
100
AcDbDimStyleTableRecord
  2
D
 70
     0
  3
%%c<>
 40
7.62
 41
2.0
 42
0.6
 43
0.7
 44
1.5
 73
     0
 74
     0
 77
     1
140
1.9
141
0.1
147
0.6
271
     0
289
     2
340
F
  0
DIMSTYLE
105
7BE6
330
A
100
AcDbSymbolTableRecord
100
AcDbDimStyleTableRecord
  2
D2
 70
     0
  3
2-%%c<>
 40
7.62
 41
2.0
 42
0.6
 43
0.7
 44
1.5
 73
     0
 74
     0
 77
     1
140
1.9
141
0.1
147
0.6
271
     0
289
     2
340
F
  0
DIMSTYLE
105
7BE7
330
A
100
AcDbSymbolTableRecord
100
AcDbDimStyleTableRecord
  2
C
 70
     0
  3
%%c<>
 40
7.62
 41
2.0
 42
0.6
 43
0.7
 44
1.5
 73
     0
 74
     0
 77
     1
140
1.9
141
0.1
147
0.6
271
     1
289
     2
340
F
  0
DIMSTYLE
105
7BE8
330
A
100
AcDbSymbolTableRecord
100
AcDbDimStyleTableRecord
  2
TYP
 70
     0
  3
 TYP.
 40
7.62
 41
2.0
 42
0.6
 43
0.7
 44
1.5
 73
     0
 74
     0
 77
     1
140
2.0
141
0.1
147
0.6
271
     1
289
     2
340
F
  0
DIMSTYLE
105
7BE9
330
A
100
AcDbSymbolTableRecord
100
AcDbDimStyleTableRecord
  2
SC3
 70
     0
  3
3-M<>
 40
7.62
 41
2.0
 42
0.6
 43
0.7
 44
1.5
 73
     0
 74
     0
 77
     1
140
2.0
141
0.1
147
0.6
271
     0
289
     2
340
F
  0
DIMSTYLE
105
7BEA
330
A
100
AcDbSymbolTableRecord
100
AcDbDimStyleTableRecord
  2
SC2
 70
     0
  3
2-M<>
 40
7.62
 41
2.0
 42
0.6
 43
0.7
 44
1.5
 73
     0
 74
     0
 77
     1
140
2.0
141
0.1
147
0.6
271
     0
289
     2
340
F
  0
DIMSTYLE
105
7BEB
330
A
100
AcDbSymbolTableRecord
100
AcDbDimStyleTableRecord
  2
SC4
 70
     0
  3
4-M<>
 40
7.62
 41
2.0
 42
0.6
 43
0.7
 44
1.5
 73
     0
 74
     0
 77
     1
140
2.0
141
0.1
147
0.6
271
     0
289
     2
340
F
  0
DIMSTYLE
105
7BEC
330
A
100
AcDbSymbolTableRecord
100
AcDbDimStyleTableRecord
  2
SC5
 70
     0
  3
5-M<>
 40
7.62
 41
2.0
 42
0.6
 43
0.7
 44
1.5
 73
     0
 74
     0
 77
     1
140
2.0
141
0.1
147
0.6
271
     0
289
     2
340
F
  0
DIMSTYLE
105
7BED
330
A
100
AcDbSymbolTableRecord
100
AcDbDimStyleTableRecord
  2
SC6
 70
     0
  3
6-M<>
 40
7.62
 41
2.0
 42
0.6
 43
0.7
 44
1.5
 73
     0
 74
     0
 77
     1
140
2.0
141
0.1
147
0.6
271
     0
289
     2
340
F
  0
DIMSTYLE
105
7BEE
330
A
100
AcDbSymbolTableRecord
100
AcDbDimStyleTableRecord
  2
D3
 70
     0
  3
3-%%c<>
 40
7.62
 41
2.0
 42
0.6
 43
0.7
 44
1.5
 73
     0
 74
     0
 77
     1
140
1.9
141
0.1
147
0.6
271
     0
289
     2
340
F
  0
DIMSTYLE
105
7BEF
330
A
100
AcDbSymbolTableRecord
100
AcDbDimStyleTableRecord
  2
D4
 70
     0
  3
4-%%c<>
 40
7.62
 41
2.0
 42
0.6
 43
0.7
 44
1.5
 73
     0
 74
     0
 77
     1
140
1.9
141
0.1
147
0.6
271
     0
289
     2
340
F
  0
DIMSTYLE
105
7BF0
330
A
100
AcDbSymbolTableRecord
100
AcDbDimStyleTableRecord
  2
T1
 70
     0
 40
7.62
 41
2.0
 42
0.6
 43
0.7
 44
1.5
 47
0.1
 71
     1
 73
     0
 74
     0
 77
     1
140
2.0
141
0.1
146
0.8
147
0.6
271
     1
272
     2
284
     8
289
     2
340
F
  0
DIMSTYLE
105
7BF1
330
A
100
AcDbSymbolTableRecord
100
AcDbDimStyleTableRecord
  2
T2
 70
     0
 40
7.62
 41
2.0
 42
0.6
 43
0.7
 44
1.5
 47
0.2
 71
     1
 73
     0
 74
     0
 77
     1
140
2.0
141
0.1
146
0.8
147
0.6
271
     1
272
     2
284
     8
289
     2
340
F
  0
DIMSTYLE
105
7BF2
330
A
100
AcDbSymbolTableRecord
100
AcDbDimStyleTableRecord
  2
T-1
 70
     0
 40
7.62
 41
2.0
 42
0.6
 43
0.7
 44
1.5
 48
0.1
 71
     1
 73
     0
 74
     0
 77
     1
140
2.0
141
0.1
146
0.8
147
0.6
271
     1
272
     2
284
     8
289
     2
340
F
  0
DIMSTYLE
105
7BF3
330
A
100
AcDbSymbolTableRecord
100
AcDbDimStyleTableRecord
  2
T-2
 70
     0
 40
7.62
 41
2.0
 42
0.6
 43
0.7
 44
1.5
 48
0.2
 71
     1
 73
     0
 74
     0
 77
     1
140
2.0
141
0.1
146
0.8
147
0.6
271
     1
272
     2
284
     8
289
     2
340
F
  0
DIMSTYLE
105
7BF4
330
A
100
AcDbSymbolTableRecord
100
AcDbDimStyleTableRecord
  2
S4
 70
     0
  3
4-M<> \M+5C9EE30
 40
7.62
 41
2.0
 42
0.6
 43
0.7
 44
1.5
 73
     0
 74
     0
 77
     1
140
1.9
141
0.1
147
0.6
271
     0
289
     2
340
7BE1
  0
DIMSTYLE
105
7BF5
330
A
100
AcDbSymbolTableRecord
100
AcDbDimStyleTableRecord
  2
D6
 70
     0
  3
6-%%c<>
 40
7.62
 41
2.0
 42
0.6
 43
0.7
 44
1.5
 73
     0
 74
     0
 77
     1
140
1.9
141
0.1
147
0.6
271
     0
289
     2
340
F
  0
DIMSTYLE
105
7BF6
330
A
100
AcDbSymbolTableRecord
100
AcDbDimStyleTableRecord
  2
D8
 70
     0
  3
8-%%c<>
 40
7.62
 41
2.0
 42
0.6
 43
0.7
 44
1.5
 73
     0
 74
     0
 77
     1
140
1.9
141
0.1
147
0.6
271
     0
289
     2
340
F
  0
DIMSTYLE
105
7BF7
330
A
100
AcDbSymbolTableRecord
100
AcDbDimStyleTableRecord
  2
SC
 70
     0
  3
M<>
 40
7.62
 41
2.0
 42
0.6
 43
0.7
 44
1.5
 73
     0
 74
     0
 77
     1
140
2.0
141
0.1
147
0.6
271
     0
289
     2
340
F
  0
DIMSTYLE
105
7BF8
330
A
100
AcDbSymbolTableRecord
100
AcDbDimStyleTableRecord
  2
SR
 70
     0
  3
SR<>
 40
7.62
 41
2.0
 42
0.6
 43
0.7
 44
1.5
 73
     0
 74
     0
 77
     1
140
2.0
141
0.1
147
0.6
271
     1
289
     2
340
F
  0
DIMSTYLE
105
7BF9
330
A
100
AcDbSymbolTableRecord
100
AcDbDimStyleTableRecord
  2
ADD
 70
     0
  3
*
 40
7.62
 41
2.0
 42
0.6
 43
0.7
 44
1.5
 73
     0
 74
     0
 77
     1
140
1.9
141
0.1
147
0.6
271
     0
289
     2
340
F
  0
DIMSTYLE
105
7BFA
330
A
100
AcDbSymbolTableRecord
100
AcDbDimStyleTableRecord
  2
ADD1
 70
     0
  3
**
 40
7.62
 41
2.0
 42
0.6
 43
0.7
 44
1.5
 73
     0
 74
     0
 77
     1
140
1.9
141
0.1
147
0.6
271
     0
289
     2
340
F
  0
DIMSTYLE
105
7BFB
330
A
100
AcDbSymbolTableRecord
100
AcDbDimStyleTableRecord
  2
A0
 70
     0
 40
7.62
 41
2.0
 42
0.6
 43
0.7
 44
1.5
 73
     0
 74
     0
 77
     1
140
1.9
141
0.1
147
0.6
271
     0
289
     2
340
F
  0
DIMSTYLE
105
7BFC
330
A
100
AcDbSymbolTableRecord
100
AcDbDimStyleTableRecord
  2
D12
 70
     0
  3
12-%%c<>
 40
7.62
 41
2.0
 42
0.6
 43
0.7
 44
1.5
 73
     0
 74
     0
 77
     1
140
1.9
141
0.1
147
0.6
271
     0
289
     2
340
F
  0
DIMSTYLE
105
7BFD
330
A
100
AcDbSymbolTableRecord
100
AcDbDimStyleTableRecord
  2
SC8
 70
     0
  3
8-M<>
 40
7.62
 41
2.0
 42
0.6
 43
0.7
 44
1.5
 73
     0
 74
     0
 77
     1
140
2.0
141
0.1
147
6.0
271
     0
289
     2
340
F
  0
DIMSTYLE
105
7BFE
330
A
100
AcDbSymbolTableRecord
100
AcDbDimStyleTableRecord
  2
T-05
 70
     0
 40
7.62
 41
2.0
 42
0.6
 43
0.7
 44
1.5
 48
0.05
 71
     1
 73
     0
 74
     0
 77
     1
140
2.0
141
0.045
146
0.8
147
0.6
271
     1
272
     2
284
     8
289
     2
340
F
  0
DIMSTYLE
105
7BFF
330
A
100
AcDbSymbolTableRecord
100
AcDbDimStyleTableRecord
  2
T05
 70
     0
 40
7.62
 41
2.0
 42
0.6
 43
0.7
 44
1.5
 47
0.05
 71
     1
 73
     0
 74
     0
 77
     1
140
2.0
141
0.1
146
0.8
147
0.6
271
     1
272
     2
284
     8
289
     2
340
F
  0
DIMSTYLE
105
7C00
330
A
100
AcDbSymbolTableRecord
100
AcDbDimStyleTableRecord
  2
X2
 70
     0
  3
(X2)
 40
7.62
 41
2.0
 42
0.6
 43
0.7
 44
1.5
 73
     0
 74
     0
 77
     1
140
2.0
141
0.1
147
0.6
271
     1
289
     2
340
F
  0
DIMSTYLE
105
7C01
330
A
100
AcDbSymbolTableRecord
100
AcDbDimStyleTableRecord
  2
X3
 70
     0
  3
(X3)
 40
7.62
 41
2.0
 42
0.6
 43
0.7
 44
1.5
 73
     0
 74
     0
 77
     1
140
2.0
141
0.1
147
0.6
271
     1
289
     2
340
F
  0
DIMSTYLE
105
7C02
330
A
100
AcDbSymbolTableRecord
100
AcDbDimStyleTableRecord
  2
X4
 70
     0
  3
(X4)
 40
7.62
 41
2.0
 42
0.6
 43
0.7
 44
1.5
 73
     0
 74
     0
 77
     1
140
2.0
141
0.1
147
0.6
271
     1
289
     2
340
F
  0
DIMSTYLE
105
7C03
330
A
100
AcDbSymbolTableRecord
100
AcDbDimStyleTableRecord
  2
X5
 70
     0
  3
(X5)
 40
7.62
 41
2.0
 42
0.6
 43
0.7
 44
0.5
 73
     0
 74
     0
 77
     1
140
2.0
141
0.1
147
0.6
271
     1
289
     2
340
F
  0
DIMSTYLE
105
7C04
330
A
100
AcDbSymbolTableRecord
100
AcDbDimStyleTableRecord
  2
X6
 70
     0
  3
(X6)
 40
7.62
 41
2.0
 42
0.6
 43
0.7
 44
1.5
 73
     0
 74
     0
 77
     1
140
2.0
141
0.1
147
0.6
271
     1
289
     2
340
F
  0
DIMSTYLE
105
7C05
330
A
100
AcDbSymbolTableRecord
100
AcDbDimStyleTableRecord
  2
D_C
 70
     0
  3
%%C<>
 40
7.62
 41
2.0
 42
0.8
 43
0.7
 44
1.5
 73
     0
 74
     0
 77
     1
140
1.9
141
0.1
147
0.6
271
     1
289
     2
340
F
  0
DIMSTYLE
105
7C06
330
A
100
AcDbSymbolTableRecord
100
AcDbDimStyleTableRecord
  2
D_C2
 70
     0
  3
2-%%C<>
 40
7.62
 41
2.0
 42
0.8
 43
0.7
 44
1.5
 73
     0
 74
     0
 77
     1
140
1.9
141
0.1
147
0.6
271
     1
289
     2
340
F
  0
DIMSTYLE
105
7C07
330
A
100
AcDbSymbolTableRecord
100
AcDbDimStyleTableRecord
  2
D_C4
 70
     0
  3
4-%%C<>
 40
7.62
 41
2.0
 42
0.8
 43
0.7
 44
1.5
 73
     0
 74
     0
 77
     1
140
1.9
141
0.1
147
0.6
271
     1
289
     2
340
F
  0
DIMSTYLE
105
82AB
330
A
100
AcDbSymbolTableRecord
100
AcDbDimStyleTableRecord
  2
bb
 70
     0
  4
"
 40
7.62
 41
1.5
 42
0.3125
 43
0.7
 44
1.0
 47
2.0
 48
2.0
 71
     1
 73
     0
 74
     0
 77
     1
140
1.5
141
0.045
143
0.03937
146
0.7
147
0.3
170
     1
271
     1
272
     1
273
     5
284
     8
286
     8
289
     2
340
F
  0
ENDTAB
  0
TABLE
  2
BLOCK_RECORD
  5
1
330
0
100
AcDbSymbolTable
 70
     5
  0
BLOCK_RECORD
  5
18
330
1
100
AcDbSymbolTableRecord
100
AcDbBlockTableRecord
  2
*MODEL_SPACE
340
5393
  0
BLOCK_RECORD
  5
15
330
1
100
AcDbSymbolTableRecord
100
AcDbBlockTableRecord
  2
*PAPER_SPACE
340
5394
  0
BLOCK_RECORD
  5
54C
330
1
100
AcDbSymbolTableRecord
100
AcDbBlockTableRecord
  2
OREFER1
340
0
102
{BLKREFS
331
572
102
}
  0
BLOCK_RECORD
  5
571
330
1
100
AcDbSymbolTableRecord
100
AcDbBlockTableRecord
  2
OREFER
340
0
102
{BLKREFS
331
7C6C
331
576
331
7BD5
331
7BD6
102
}
  0
BLOCK_RECORD
  5
7C0E
330
1
100
AcDbSymbolTableRecord
100
AcDbBlockTableRecord
  2
1-5_A3_H
340
0
  0
BLOCK_RECORD
  5
7CB3
330
1
100
AcDbSymbolTableRecord
100
AcDbBlockTableRecord
  2
A$C7B493DA9
340
0
  0
BLOCK_RECORD
  5
835C
330
1
100
AcDbSymbolTableRecord
100
AcDbBlockTableRecord
  2
*U4
340
0
102
{BLKREFS
331
8368
102
}
  0
ENDTAB
  0
ENDSEC
  0
SECTION
  2
BLOCKS
  0
BLOCK
  5
19
330
18
100
AcDbEntity
  8
0
100
AcDbBlockBegin
  2
*MODEL_SPACE
 70
     0
 10
0.0
 20
0.0
 30
0.0
  3
*MODEL_SPACE
  1

  0
ENDBLK
  5
1A
330
18
100
AcDbEntity
  8
0
100
AcDbBlockEnd
  0
BLOCK
  5
16
330
15
100
AcDbEntity
 67
     1
  8
0
100
AcDbBlockBegin
  2
*PAPER_SPACE
 70
     0
 10
0.0
 20
0.0
 30
0.0
  3
*PAPER_SPACE
  1

  0
ENDBLK
  5
17
330
15
100
AcDbEntity
 67
     1
  8
0
100
AcDbBlockEnd
  0
BLOCK
  5
54D
330
54C
100
AcDbEntity
  8
0
100
AcDbBlockBegin
  2
OREFER1
 70
     0
 10
0.0
 20
0.0
 30
0.0
  3
OREFER1
  1

  0
ENDBLK
  5
54E
330
54C
100
AcDbEntity
  8
0
100
AcDbBlockEnd
  0
BLOCK
  5
573
330
571
100
AcDbEntity
  8
0
100
AcDbBlockBegin
  2
OREFER
 70
     0
 10
0.0
 20
0.0
 30
0.0
  3
OREFER
  1

  0
INSERT
  5
572
330
571
100
AcDbEntity
  8
0
  6
Continuous
100
AcDbBlockReference
  2
OREFER1
 10
0.0
 20
0.0
 30
0.0
  0
ENDBLK
  5
574
330
571
100
AcDbEntity
  8
0
100
AcDbBlockEnd
  0
BLOCK
  5
7C6D
330
7C0E
100
AcDbEntity
  8
0
100
AcDbBlockBegin
  2
1-5_A3_H
 70
     2
 10
0.0
 20
0.0
 30
0.0
  3
1-5_A3_H
  1

  0
LINE
  5
7C0F
102
{ACAD_REACTORS
330
7C09
102
}
330
7C0E
100
AcDbEntity
  8
DRAW
  6
Continuous
100
AcDbLine
 10
1291.67182068897
 20
2063.312426657847
 30
0.0
 11
-643.3281793110245
 21
2063.312426657847
 31
0.0
  0
LINE
  5
7C10
102
{ACAD_REACTORS
330
7C09
102
}
330
7C0E
100
AcDbEntity
  8
DRAW
  6
Continuous
 62
    62
100
AcDbLine
 10
1326.671820688972
 20
2098.312426657847
 30
0.0
 11
-678.3281793110245
 21
2098.312426657849
 31
0.0
  0
LINE
  5
7C11
102
{ACAD_REACTORS
330
7C09
102
}
330
7C0E
100
AcDbEntity
  8
DRAW
  6
Continuous
100
AcDbLine
 10
1291.67182068897
 20
698.3124266578514
 30
0.0
 11
-643.3281793110245
 21
698.3124266578514
 31
0.0
  0
LINE
  5
7C12
102
{ACAD_REACTORS
330
7C09
102
}
330
7C0E
100
AcDbEntity
  8
DRAW
  6
Continuous
100
AcDbLine
 10
-643.3281793110245
 20
698.3124266578514
 30
0.0
 11
-643.3281793110245
 21
2063.312426657847
 31
0.0
  0
LINE
  5
7C13
102
{ACAD_REACTORS
330
7C09
102
}
330
7C0E
100
AcDbEntity
  8
DRAW
  6
Continuous
100
AcDbLine
 10
1291.67182068897
 20
698.3124266578514
 30
0.0
 11
1291.67182068897
 21
2063.312426657847
 31
0.0
  0
TEXT
  5
7C14
102
{ACAD_REACTORS
330
7C09
102
}
330
7C0E
100
AcDbEntity
  8
BOM
  6
Continuous
100
AcDbText
 10
753.6025833287135
 20
909.8784349852023
 30
0.0
 40
16.58432031423407
  1
 CAVITY PUNCH DIE
  7
ROMANS
100
AcDbText
  0
ATTDEF
  5
7C15
102
{ACAD_REACTORS
330
7C09
102
}
330
7C0E
100
AcDbEntity
  8
BOM
  6
Continuous
100
AcDbText
 10
784.5084328691439
 20
841.2963679719807
 30
0.0
 40
13.81859592571243
  1
XXX
  7
ROMANS
100
AcDbAttributeDefinition
  3
TOOL-NO:
  2
10002-2019-01
 70
     0
  0
MTEXT
  5
7C16
102
{ACAD_REACTORS
330
7C09
102
}
330
7C0E
100
AcDbEntity
  8
BOM
  6
Continuous
100
AcDbMText
 10
838.5492576801297
 20
880.9616313434558
 30
0.0
 40
17.49999999999999
 41
0.0
 71
     4
 72
     1
  1
\f\M+5CBCE\M+5CCE5|b0|i0|c134|p2;\M+5C2E4\M+5C1CF\M+5C0AD\M+5C9EE\M+5C4A3
 73
     1
 44
1.0
  0
LWPOLYLINE
  5
7C17
102
{ACAD_REACTORS
330
7C09
102
}
330
7C0E
100
AcDbEntity
  8
DRAW
  6
Continuous
100
AcDbPolyline
 90
        2
 70
     0
 43
1.714499999999999
 10
658.2779621050494
 20
716.1718016578552
 10
928.3637678169325
 20
716.1718016578552
  0
LINE
  5
7C18
102
{ACAD_REACTORS
330
7C09
102
}
330
7C0E
100
AcDbEntity
  8
DRAW
  6
Continuous
100
AcDbLine
 10
928.3637678169327
 20
716.171801657852
 30
0.0
 11
658.2779621050497
 21
716.171801657852
 31
0.0
  0
LWPOLYLINE
  5
7C19
102
{ACAD_REACTORS
330
7C09
102
}
330
7C0E
100
AcDbEntity
  8
DRAW
  6
Continuous
100
AcDbPolyline
 90
        2
 70
     0
 43
1.714499999999999
 10
658.2779621050494
 20
809.1050782169249
 10
1291.671820688965
 20
809.1050782169249
  0
LWPOLYLINE
  5
7C1A
102
{ACAD_REACTORS
330
7C09
102
}
330
7C0E
100
AcDbEntity
  8
DRAW
  6
Continuous
100
AcDbPolyline
 90
        2
 70
     0
 43
1.714499999999999
 10
1291.671820688965
 20
832.9175782169269
 10
658.2779621050494
 20
832.9175782169269
  0
LINE
  5
7C1B
102
{ACAD_REACTORS
330
7C09
102
}
330
7C0E
100
AcDbEntity
  8
DRAW
  6
Continuous
100
AcDbLine
 10
1291.671820688967
 20
832.9175782169242
 30
0.0
 11
658.2779621050497
 21
832.9175782169242
 31
0.0
  0
LINE
  5
7C1C
102
{ACAD_REACTORS
330
7C09
102
}
330
7C0E
100
AcDbEntity
  8
DRAW
  6
Continuous
100
AcDbLine
 10
1291.671820688967
 20
809.105078216924
 30
0.0
 11
658.2779621050497
 21
809.105078216924
 31
0.0
  0
LWPOLYLINE
  5
7C1D
102
{ACAD_REACTORS
330
7C09
102
}
330
7C0E
100
AcDbEntity
  8
DRAW
  6
Continuous
100
AcDbPolyline
 90
        3
 70
     0
 43
1.714499999999999
 10
658.2779621050494
 20
734.0311766578532
 10
658.2779621050494
 20
734.0311766578532
 10
1291.671820688965
 20
734.0311766578532
  0
LINE
  5
7C1E
102
{ACAD_REACTORS
330
7C09
102
}
330
7C0E
100
AcDbEntity
  8
DRAW
  6
Continuous
100
AcDbLine
 10
1291.671820688967
 20
734.0311766578524
 30
0.0
 11
658.2779621050497
 21
734.0311766578524
 31
0.0
  0
LWPOLYLINE
  5
7C1F
102
{ACAD_REACTORS
330
7C09
102
}
330
7C0E
100
AcDbEntity
  8
DRAW
  6
Continuous
100
AcDbPolyline
 90
        3
 70
     0
 43
1.714499999999999
 10
658.2779621050494
 20
698.3124266578514
 10
658.2779621050494
 20
931.1441407169246
 10
1291.671820688965
 20
931.1441407169246
  0
TEXT
  5
7C20
102
{ACAD_REACTORS
330
7C09
102
}
330
7C0E
100
AcDbEntity
  8
DIM
  6
Continuous
100
AcDbText
 10
672.8144026675744
 20
780.4079612381532
 30
0.0
 40
18.73746214717499
  1
FO SHAN MA GANG KITCHEN UTENSILS CO.LTD
  7
SANSSERIFBOLDOBLIQUE
100
AcDbText
  0
MTEXT
  5
7C21
102
{ACAD_REACTORS
330
7C09
102
}
330
7C0E
100
AcDbEntity
  8
DIM
  6
Continuous
100
AcDbMText
 10
691.6463542567535
 20
753.5007800878505
 30
0.0
 40
25.71054472090896
 41
0.0
 71
     4
 72
     1
  1
{\fSimSun|b0|i0|c134|p2;\M+5B7F0 \M+5C9BD \M+5CAD0 \M+5C2ED \M+5B8D4 \M+5B3F8 \M+5BEDF \M+5D3D0 \M+5CFDE \M+5B9AB \M+5CBBE}
 73
     1
 44
1.0
  0
MTEXT
  5
7C22
102
{ACAD_REACTORS
330
7C09
102
}
330
7C0E
100
AcDbEntity
  8
BOM
  6
Continuous
100
AcDbMText
 10
5.735823154086573
 20
759.6192309755315
 30
0.0
 40
22.11474911609969
 41
0.0
 71
     4
 72
     1
  1
\f\M+5CBCE\M+5CCE5|b0|i0|c134|p2;\M+5B4F8*\M+5BAC5\M+5B3DF\M+5B4E7\M+5D3EB\M+5CDB9\M+5B0BC\M+5C4A3\M+5C5E4\M+5D7F7\M+5A3AC\M+5B5A5\M+5B1DF\M+5BCE4\M+5CFB6C=0.03MM\M+5A1A3
 73
     1
 44
1.0
  0
MTEXT
  5
7C23
102
{ACAD_REACTORS
330
7C09
102
}
330
7C0E
100
AcDbEntity
  8
BOM
  6
Continuous
100
AcDbMText
 10
-33.39312558370465
 20
759.6192309755315
 30
0.0
 40
22.11474911609969
 41
0.0
 71
     4
 72
     1
  1
\f\M+5CBCE\M+5CCE5|b0|i0|c134|p2;3.
 73
     1
 44
1.0
  0
MTEXT
  5
7C24
102
{ACAD_REACTORS
330
7C09
102
}
330
7C0E
100
AcDbEntity
  8
BOM
  6
Continuous
100
AcDbMText
 10
5.735823154086573
 20
844.9374521015247
 30
0.0
 40
22.11474911609969
 41
0.0
 71
     4
 72
     1
  1
\f\M+5CBCE\M+5CCE5|b0|i0|c134|p2;\M+5CEB4\M+5B1EA\M+5B5B9\M+5BDC71X45 \M+5A1A3
 73
     1
 44
1.0
  0
MTEXT
  5
7C25
102
{ACAD_REACTORS
330
7C09
102
}
330
7C0E
100
AcDbEntity
  8
BOM
  6
Continuous
100
AcDbMText
 10
5.735823154086573
 20
798.7234131741397
 30
0.0
 40
22.11474911609969
 41
0.0
 71
     4
 72
     1
  1
\f\M+5CBCE\M+5CCE5|b0|i0|c134|p2;\M+5C8C8\M+5B4A6\M+5C0EDHRC58-62\M+5A1A3
 73
     1
 44
1.0
  0
MTEXT
  5
7C26
102
{ACAD_REACTORS
330
7C09
102
}
330
7C0E
100
AcDbEntity
  8
BOM
  6
Continuous
100
AcDbMText
 10
-58.29336007506071
 20
884.0416343001335
 30
0.0
 40
22.11474911609969
 41
0.0
 71
     4
 72
     1
  1
\f\M+5CBCE\M+5CCE5|b0|i0|c134|p2;\M+5D7A2\M+5A3BA
 73
     1
 44
1.0
  0
MTEXT
  5
7C27
102
{ACAD_REACTORS
330
7C09
102
}
330
7C0E
100
AcDbEntity
  8
BOM
  6
Continuous
100
AcDbMText
 10
-33.39312558370465
 20
844.9374521015247
 30
0.0
 40
22.11474911609969
 41
0.0
 71
     4
 72
     1
  1
\f\M+5CBCE\M+5CCE5|b0|i0|c134|p2;1.
 73
     1
 44
1.0
  0
MTEXT
  5
7C28
102
{ACAD_REACTORS
330
7C09
102
}
330
7C0E
100
AcDbEntity
  8
BOM
  6
Continuous
100
AcDbMText
 10
-33.39312558370465
 20
798.7234131741397
 30
0.0
 40
22.11474911609969
 41
0.0
 71
     4
 72
     1
  1
\f\M+5CBCE\M+5CCE5|b0|i0|c134|p2;2.
 73
     1
 44
1.0
  0
TEXT
  5
7C29
102
{ACAD_REACTORS
330
7C09
102
}
330
7C0E
100
AcDbEntity
  8
BOM
  6
Continuous
100
AcDbText
 10
211.0929597606344
 20
852.0323363483866
 30
0.0
 40
12.18831943297118
  1
%%D
 50
90.0
100
AcDbText
  0
TEXT
  5
7C2A
102
{ACAD_REACTORS
330
7C09
102
}
330
7C0E
100
AcDbEntity
  8
DIM
  6
Continuous
100
AcDbText
 10
707.4057181007868
 20
719.8230177624751
 30
0.0
 40
9.53505561862179
  1
SHEET NO
  7
ROMANS
100
AcDbText
  0
ATTDEF
  5
7C2B
102
{ACAD_REACTORS
330
7C09
102
}
330
7C0E
100
AcDbEntity
  8
DIM
  6
Continuous
100
AcDbText
 10
706.3862267118041
 20
698.8307070870705
 30
0.0
 40
9.53505561862179
  1
1
  7
ROMANS
100
AcDbAttributeDefinition
  3
PAGE
  2
1
 70
     0
  0
TEXT
  5
7C2C
102
{ACAD_REACTORS
330
7C09
102
}
330
7C0E
100
AcDbEntity
  8
DIM
  6
Continuous
100
AcDbText
 10
721.1541280618644
 20
700.3839467031098
 30
0.0
 40
9.53505561862179
  1
OF
  7
ROMANS
100
AcDbText
  0
ATTDEF
  5
7C2D
102
{ACAD_REACTORS
330
7C09
102
}
330
7C0E
100
AcDbEntity
  8
DIM
  6
Continuous
100
AcDbText
 10
744.3032312618401
 20
698.8307070870705
 30
0.0
 40
9.53505561862179
  1
2
  7
ROMANS
100
AcDbAttributeDefinition
  3
ALL PAGE
  2
1
 70
     0
  0
LWPOLYLINE
  5
7C2E
102
{ACAD_REACTORS
330
7C09
102
}
330
7C0E
100
AcDbEntity
  8
DRAW
  6
Continuous
100
AcDbPolyline
 90
        2
 70
     0
 43
1.714499999999999
 10
835.6119823744657
 20
734.0311766578532
 10
835.6119823744657
 20
698.3124266578514
  0
LINE
  5
7C2F
102
{ACAD_REACTORS
330
7C09
102
}
330
7C0E
100
AcDbEntity
  8
DRAW
  6
Continuous
100
AcDbLine
 10
835.6119823744654
 20
734.0311766578524
 30
0.0
 11
835.6119823744654
 21
698.3124266578514
 31
0.0
  0
TEXT
  5
7C30
102
{ACAD_REACTORS
330
7C09
102
}
330
7C0E
100
AcDbEntity
  8
DIM
  6
Continuous
100
AcDbText
 10
856.5703466876152
 20
721.1303179152666
 30
0.0
 40
9.53505561862179
  1
SCALE
  7
ROMANS
100
AcDbText
  0
TEXT
  5
7C31
102
{ACAD_REACTORS
330
7C09
102
}
330
7C0E
100
AcDbEntity
  8
BOM
  6
Continuous
100
AcDbText
 10
862.9040678450371
 20
699.8712201115431
 30
0.0
 40
9.53505561862179
  1
1:5
  7
ROMANS
100
AcDbText
  0
ATTDEF
  5
7C32
102
{ACAD_REACTORS
330
7C09
102
}
330
7C0E
100
AcDbEntity
  8
BOM
  6
Continuous
100
AcDbText
 10
746.9771341415696
 20
909.8447750564883
 30
0.0
 40
16.58432031423407
  1
4
  7
ROMANS
100
AcDbAttributeDefinition
  3
CAVS
  2
1
 70
     0
  0
MTEXT
  5
7C33
102
{ACAD_REACTORS
330
7C09
102
}
330
7C0E
100
AcDbEntity
  8
BOM
  6
Continuous
100
AcDbMText
 10
708.2242432566645
 20
882.6170737947345
 30
0.0
 40
21.0
 41
0.0
 71
     4
 72
     1
  1
\f\M+5CBCE\M+5CCE5|b0|i0|c134|p2;\M+5D7B0\M+5C5E4\M+5CDBC:
 73
     1
 44
1.0
  0
TEXT
  5
7C34
102
{ACAD_REACTORS
330
7C09
102
}
330
7C0E
100
AcDbEntity
  8
DIM
  6
Continuous
100
AcDbText
 10
664.9898511558172
 20
841.9858074426695
 30
0.0
 40
13.81859592571243
  1
TOOL NO :
  7
ROMANS
100
AcDbText
  0
TEXT
  5
7C35
102
{ACAD_REACTORS
330
7C09
102
}
330
7C0E
100
AcDbEntity
  8
DIM
  6
Continuous
100
AcDbText
 10
674.2780911373052
 20
816.046150425115
 30
0.0
 40
12.42675707420725
  1
MAT'L :
  7
ROMANS
100
AcDbText
  0
TEXT
  5
7C36
102
{ACAD_REACTORS
330
7C09
102
}
330
7C0E
100
AcDbEntity
  8
DIM
  6
Continuous
100
AcDbText
 10
664.8176627273993
 20
912.0206426280429
 30
0.0
 40
13.81859592571243
  1
TITLE :
  7
ROMANS
100
AcDbText
  0
MTEXT
  5
7C37
102
{ACAD_REACTORS
330
7C09
102
}
330
7C0E
100
AcDbEntity
  8
BOM
  6
Continuous
100
AcDbMText
 10
761.2466728293739
 20
819.8925995942941
 30
0.0
 40
13.71599999999999
 41
0.0
 71
     4
 72
     1
  1

 73
     1
 44
1.0
  0
ATTDEF
  5
7C38
102
{ACAD_REACTORS
330
7C09
102
}
330
7C0E
100
AcDbEntity
  8
BOM
  6
Continuous
100
AcDbText
 10
963.2033781757247
 20
702.6939266578509
 30
0.0
 40
14.93414517485658
  1
XXX
  7
ROMANS
100
AcDbAttributeDefinition
  3
TOOL-DRAW-NO;
  2
10002-2019-01-Q501
 70
     0
  0
TEXT
  5
7C39
102
{ACAD_REACTORS
330
7C09
102
}
330
7C0E
100
AcDbEntity
  8
DIM
  6
Continuous
100
AcDbText
 10
931.5062566296717
 20
721.3973460350533
 30
0.0
 40
7.739288332021255
  1
TOOL DWG NO:
  7
ROMANS
100
AcDbText
  0
LWPOLYLINE
  5
7C3A
102
{ACAD_REACTORS
330
7C09
102
}
330
7C0E
100
AcDbEntity
  8
DRAW
  6
Continuous
100
AcDbPolyline
 90
        2
 70
     0
 43
1.714499999999999
 10
928.3637678169325
 20
734.0311766578532
 10
928.3637678169325
 20
698.3124266578514
  0
LINE
  5
7C3B
102
{ACAD_REACTORS
330
7C09
102
}
330
7C0E
100
AcDbEntity
  8
DRAW
  6
Continuous
100
AcDbLine
 10
928.3637678169327
 20
734.0311766578524
 30
0.0
 11
928.3637678169327
 21
698.3124266578514
 31
0.0
  0
TEXT
  5
7C3C
102
{ACAD_REACTORS
330
7C09
102
}
330
7C0E
100
AcDbEntity
  8
DIM
  6
Continuous
100
AcDbText
 10
1262.029927526093
 20
722.152879902698
 30
0.0
 40
7.635884747278861
  1
REV
  7
ROMANS
100
AcDbText
  0
LWPOLYLINE
  5
7C3D
102
{ACAD_REACTORS
330
7C09
102
}
330
7C0E
100
AcDbEntity
  8
DRAW
  6
Continuous
100
AcDbPolyline
 90
        2
 70
     0
 43
1.714499999999999
 10
1253.481868449862
 20
734.0311766578532
 10
1253.481868449862
 20
698.3124266578514
  0
LINE
  5
7C3E
102
{ACAD_REACTORS
330
7C09
102
}
330
7C0E
100
AcDbEntity
  8
DRAW
  6
Continuous
100
AcDbLine
 10
1253.481868449862
 20
734.0311766578524
 30
0.0
 11
1253.481868449862
 21
698.3124266578514
 31
0.0
  0
LWPOLYLINE
  5
7C3F
102
{ACAD_REACTORS
330
7C09
102
}
330
7C0E
100
AcDbEntity
  8
DRAW
  6
Continuous
100
AcDbPolyline
 90
        2
 70
     0
 43
1.714499999999999
 10
1016.098287254269
 20
865.659765716925
 10
1291.67182068897
 20
865.659765716925
  0
LWPOLYLINE
  5
7C40
102
{ACAD_REACTORS
330
7C09
102
}
330
7C0E
100
AcDbEntity
  8
DRAW
  6
Continuous
100
AcDbPolyline
 90
        2
 70
     0
 43
1.714499999999999
 10
1016.098287254269
 20
898.4019532169231
 10
1291.67182068897
 20
898.4019532169231
  0
LINE
  5
7C41
102
{ACAD_REACTORS
330
7C09
102
}
330
7C0E
100
AcDbEntity
  8
DRAW
  6
Continuous
100
AcDbLine
 10
1291.67182068897
 20
898.4019532169252
 30
0.0
 11
1016.098287254268
 21
898.401953216924
 31
0.0
  0
LWPOLYLINE
  5
7C42
102
{ACAD_REACTORS
330
7C09
102
}
330
7C0E
100
AcDbEntity
  8
DRAW
  6
Continuous
100
AcDbPolyline
 90
        2
 70
     0
 43
1.714499999999999
 10
1016.098287254269
 20
865.6597657169259
 10
1291.67182068897
 20
865.6597657169259
  0
LINE
  5
7C43
102
{ACAD_REACTORS
330
7C09
102
}
330
7C0E
100
AcDbEntity
  8
DRAW
  6
Continuous
100
AcDbLine
 10
1291.67182068897
 20
865.6597657169248
 30
0.0
 11
1016.098287254268
 21
865.6597657169248
 31
0.0
  0
TEXT
  5
7C44
102
{ACAD_REACTORS
330
7C09
102
}
330
7C0E
100
AcDbEntity
  8
DIM
  6
Continuous
100
AcDbText
 10
940.141908620318
 20
815.883554234977
 30
0.0
 40
11.67396848737699
  1
USE :        MM THICKNESS
  7
ROMANS
100
AcDbText
  0
TEXT
  5
7C45
102
{ACAD_REACTORS
330
7C09
102
}
330
7C0E
100
AcDbEntity
  8
DIM
  6
Continuous
100
AcDbText
 10
1020.396430779921
 20
851.0833468465243
 30
0.0
 40
10.3458835403144
  1
APR.JL.CHAN
  7
ROMANS
100
AcDbText
  0
TEXT
  5
7C46
102
{ACAD_REACTORS
330
7C09
102
}
330
7C0E
100
AcDbEntity
  8
DIM
  6
Continuous
100
AcDbText
 10
1019.739999139627
 20
883.7270158248639
 30
0.0
 40
10.3458835403144
  1
CHKD.JL.CHAN
  7
ROMANS
100
AcDbText
  0
ATTDEF
  5
7C47
102
{ACAD_REACTORS
330
7C09
102
}
330
7C0E
100
AcDbEntity
  8
BOM
  6
Continuous
100
AcDbText
 10
1060.067128632947
 20
914.8563907169243
 30
0.0
 40
10.3458835403144
  1
XXX
  7
ROMANS
100
AcDbAttributeDefinition
  3

  2
AMY
 70
     0
  0
LWPOLYLINE
  5
7C48
102
{ACAD_REACTORS
330
7C09
102
}
330
7C0E
100
AcDbEntity
  8
DRAW
  6
Continuous
100
AcDbPolyline
 90
        2
 70
     0
 43
1.714499999999999
 10
1016.098287254262
 20
931.1441407169246
 10
1016.098287254262
 20
832.9175782169269
  0
ATTDEF
  5
7C49
102
{ACAD_REACTORS
330
7C09
102
}
330
7C0E
100
AcDbEntity
  8
BOM
  6
Continuous
100
AcDbText
 10
1001.268256094498
 20
814.1584188449613
 30
0.0
 40
12.42675707420725
  1
0.005
  7
ROMANS
100
AcDbAttributeDefinition
  3
USE
  2
220.0
 70
     0
  0
LWPOLYLINE
  5
7C4A
102
{ACAD_REACTORS
330
7C09
102
}
330
7C0E
100
AcDbEntity
  8
DRAW
  6
Continuous
100
AcDbPolyline
 90
        2
 70
     0
 43
1.714499999999999
 10
928.3637678169325
 20
832.9175782169269
 10
928.3637678169325
 20
809.1050782169249
  0
LINE
  5
7C4B
102
{ACAD_REACTORS
330
7C09
102
}
330
7C0E
100
AcDbEntity
  8
DRAW
  6
Continuous
100
AcDbLine
 10
928.3637678169327
 20
832.9175782169242
 30
0.0
 11
928.3637678169327
 21
809.105078216924
 31
0.0
  0
TEXT
  5
7C4C
102
{ACAD_REACTORS
330
7C09
102
}
330
7C0E
100
AcDbEntity
  8
DIM
  6
Continuous
100
AcDbText
 10
1021.338411410604
 20
915.8279652970923
 30
0.0
 40
10.3458835403144
  1
DES. 
  7
ROMANS
100
AcDbText
  0
LINE
  5
7C4D
102
{ACAD_REACTORS
330
7C09
102
}
330
7C0E
100
AcDbEntity
  8
0
  6
Continuous
100
AcDbLine
 10
1174.704820688969
 20
931.1441407169233
 30
0.0
 11
1174.704820688969
 21
832.9175782169242
 31
0.0
  0
LWPOLYLINE
  5
7C4E
102
{ACAD_REACTORS
330
7C09
102
}
330
7C0E
100
AcDbEntity
  8
0
  6
Continuous
100
AcDbPolyline
 90
        2
 70
     0
 43
1.714499999999999
 10
1174.704820688969
 20
931.1441407169246
 10
1174.704820688969
 20
832.9175782169269
  0
TEXT
  5
7C4F
102
{ACAD_REACTORS
330
7C09
102
}
330
7C0E
100
AcDbEntity
  8
DIM
  6
Continuous
100
AcDbText
 10
1178.639280851055
 20
850.6501146738553
 30
0.0
 40
10.3458835403144
  1
DATE
  7
ROMANS
100
AcDbText
  0
TEXT
  5
7C50
102
{ACAD_REACTORS
330
7C09
102
}
330
7C0E
100
AcDbEntity
  8
DIM
  6
Continuous
100
AcDbText
 10
1178.639280851055
 20
883.3923021738591
 30
0.0
 40
10.3458835403144
  1
DATE
  7
ROMANS
100
AcDbText
  0
TEXT
  5
7C51
102
{ACAD_REACTORS
330
7C09
102
}
330
7C0E
100
AcDbEntity
  8
DIM
  6
Continuous
100
AcDbText
 10
1178.639280851055
 20
916.1344896738585
 30
0.0
 40
10.3458835403144
  1
DATE
  7
ROMANS
100
AcDbText
  0
TEXT
  5
7C52
102
{ACAD_REACTORS
330
7C09
102
}
330
7C0E
100
AcDbEntity
  8
DIM
  6
Continuous
100
AcDbText
 10
858.613922318824
 20
2006.241469172472
 30
0.0
 40
13.1966510195009
  1
LAYOUT
  7
ROMANS
100
AcDbText
  0
TEXT
  5
7C53
102
{ACAD_REACTORS
330
7C09
102
}
330
7C0E
100
AcDbEntity
  8
DIM
  6
Continuous
100
AcDbText
 10
857.6264593070948
 20
2039.655985361494
 30
0.0
 40
13.1966510195009
  1
REF NO.
  7
ROMANS
100
AcDbText
  0
LINE
  5
7C54
102
{ACAD_REACTORS
330
7C09
102
}
330
7C0E
100
AcDbEntity
  8
DRAW
  6
Continuous
100
AcDbLine
 10
1291.67182068897
 20
2026.192843075028
 30
0.0
 11
852.7113473352709
 21
2026.192843075028
 31
0.0
  0
LINE
  5
7C55
102
{ACAD_REACTORS
330
7C09
102
}
330
7C0E
100
AcDbEntity
  8
DRAW
  6
Continuous
100
AcDbLine
 10
1291.67182068897
 20
2002.380343075029
 30
0.0
 11
852.7113473352709
 21
2002.380343075029
 31
0.0
  0
LINE
  5
7C56
102
{ACAD_REACTORS
330
7C09
102
}
330
7C0E
100
AcDbEntity
  8
DRAW
  6
Continuous
100
AcDbLine
 10
1291.67182068897
 20
1978.567843075028
 30
0.0
 11
852.7113473352709
 21
1978.567843075028
 31
0.0
  0
LINE
  5
7C57
102
{ACAD_REACTORS
330
7C09
102
}
330
7C0E
100
AcDbEntity
  8
DRAW
  6
Continuous
100
AcDbLine
 10
1291.67182068897
 20
1954.755343075029
 30
0.0
 11
852.7113473352709
 21
1954.755343075029
 31
0.0
  0
MTEXT
  5
7C58
102
{ACAD_REACTORS
330
7C09
102
}
330
7C0E
100
AcDbEntity
  8
DIM
  6
Continuous
100
AcDbMText
 10
747.3219838169134
 20
2011.936282254665
 30
0.0
 40
13.2688494696598
 41
0.0
 71
     4
 72
     1
  1
\f\M+5CBCE\M+5CCE5|b0|i0|c134|p2;\M+5C6E4\M+5D3E0 
 73
     1
 44
1.0
  0
LINE
  5
7C59
102
{ACAD_REACTORS
330
7C09
102
}
330
7C0E
100
AcDbEntity
  8
DRAW
  6
Continuous
100
AcDbLine
 10
852.7113473352709
 20
2064.08951251309
 30
0.0
 11
852.7113473352709
 21
1954.755343075029
 31
0.0
  0
LINE
  5
7C5A
102
{ACAD_REACTORS
330
7C09
102
}
330
7C0E
100
AcDbEntity
  8
DIM
  6
Continuous
100
AcDbLine
 10
793.8377040026637
 20
2016.940953179065
 30
0.0
 11
806.3377040026637
 21
1995.290318084456
 31
0.0
  0
LINE
  5
7C5B
102
{ACAD_REACTORS
330
7C09
102
}
330
7C0E
100
AcDbEntity
  8
DIM
  6
Continuous
100
AcDbLine
 10
831.203251165815
 20
2038.358709129032
 30
0.0
 11
806.4721568395123
 21
1995.523197229099
 31
0.0
  0
LINE
  5
7C5C
102
{ACAD_REACTORS
330
7C09
102
}
330
7C0E
100
AcDbEntity
  8
DIM
  6
Continuous
100
AcDbLine
 10
793.8377040026637
 20
2016.940953179065
 30
0.0
 11
818.8377040026637
 21
2016.940953179065
 31
0.0
  0
TEXT
  5
7C5D
102
{ACAD_REACTORS
330
7C09
102
}
330
7C0E
100
AcDbEntity
  8
DIM
  6
Continuous
100
AcDbText
 10
792.293533310617
 20
2021.213732195937
 30
0.0
 40
10.55732081560072
  1
1.6
  7
ROMANS
100
AcDbText
  0
TEXT
  5
7C5E
102
{ACAD_REACTORS
330
7C09
102
}
330
7C0E
100
AcDbEntity
  8
DIM
  6
Continuous
100
AcDbText
 10
858.613922318824
 20
1981.24146917247
 30
0.0
 40
13.1966510195009
  1
F/R
  7
ROMANS
100
AcDbText
  0
TEXT
  5
7C5F
102
{ACAD_REACTORS
330
7C09
102
}
330
7C0E
100
AcDbEntity
  8
BOM
  6
Continuous
100
AcDbText
 10
1196.962117407122
 20
1985.131894073458
 30
0.0
 40
11.62606037426495
  1
03/05/02
  7
ROMANS
100
AcDbText
  0
TEXT
  5
7C60
102
{ACAD_REACTORS
330
7C09
102
}
330
7C0E
100
AcDbEntity
  8
BOM
  6
Continuous
100
AcDbText
 10
1196.962117407122
 20
2008.944394073461
 30
0.0
 40
11.62606037426495
  1
03/05/02
  7
ROMANS
100
AcDbText
  0
TEXT
  5
7C61
102
{ACAD_REACTORS
330
7C09
102
}
330
7C0E
100
AcDbEntity
  8
DIM
  6
Continuous
100
AcDbText
 10
1216.409766484531
 20
2037.83636445196
 30
0.0
 40
13.1966510195009
  1
DATE
  7
ROMANS
100
AcDbText
  0
TEXT
  5
7C62
102
{ACAD_REACTORS
330
7C09
102
}
330
7C0E
100
AcDbEntity
  8
DIM
  6
Continuous
100
AcDbText
 10
1060.717280087576
 20
2039.655985361494
 30
0.0
 40
13.1966510195009
  1
ITEM
  7
ROMANS
100
AcDbText
  0
LINE
  5
7C63
102
{ACAD_REACTORS
330
7C09
102
}
330
7C0E
100
AcDbEntity
  8
DRAW
  6
Continuous
100
AcDbLine
 10
943.3531677464419
 20
2064.08951251309
 30
0.0
 11
943.3531677464419
 21
1954.755343075029
 31
0.0
  0
LINE
  5
7C64
102
{ACAD_REACTORS
330
7C09
102
}
330
7C0E
100
AcDbEntity
  8
DRAW
  6
Continuous
100
AcDbLine
 10
1047.9815618682
 20
2064.08951251309
 30
0.0
 11
1047.9815618682
 21
1954.755343075029
 31
0.0
  0
TEXT
  5
7C65
102
{ACAD_REACTORS
330
7C09
102
}
330
7C0E
100
AcDbEntity
  8
DIM
  6
Continuous
100
AcDbText
 10
959.9682184708854
 20
2039.655985361494
 30
0.0
 40
13.1966510195009
  1
DESIGN
  7
ROMANS
100
AcDbText
  0
TEXT
  5
7C66
102
{ACAD_REACTORS
330
7C09
102
}
330
7C0E
100
AcDbEntity
  8
BOM
  6
Continuous
100
AcDbText
 10
970.8962563532157
 20
1984.273424373159
 30
0.0
 40
13.1966510195009
  1
AMY
  7
ROMANS
100
AcDbText
  0
TEXT
  5
7C67
102
{ACAD_REACTORS
330
7C09
102
}
330
7C0E
100
AcDbEntity
  8
BOM
  6
Continuous
100
AcDbText
 10
970.8962563532157
 20
2008.085924373161
 30
0.0
 40
13.1966510195009
  1
AMY
  7
ROMANS
100
AcDbText
  0
LINE
  5
7C68
102
{ACAD_REACTORS
330
7C09
102
}
330
7C0E
100
AcDbEntity
  8
DRAW
  6
Continuous
100
AcDbLine
 10
1193.813518068247
 20
2064.08951251309
 30
0.0
 11
1193.813518068247
 21
1954.755343075029
 31
0.0
  0
LINE
  5
7C69
102
{ACAD_REACTORS
330
7C09
102
}
330
7C0E
100
AcDbEntity
  8
DRAW
  6
Continuous
 62
    62
100
AcDbLine
 10
1326.671820688972
 20
663.3124266578516
 30
0.0
 11
-678.3281793110245
 21
663.3124266578516
 31
0.0
  0
LINE
  5
7C6A
102
{ACAD_REACTORS
330
7C09
102
}
330
7C0E
100
AcDbEntity
  8
DRAW
  6
Continuous
 62
    62
100
AcDbLine
 10
1326.671820688972
 20
663.3124266578516
 30
0.0
 11
1326.671820688972
 21
2098.312426657847
 31
0.0
  0
LINE
  5
7C6B
102
{ACAD_REACTORS
330
7C09
102
}
330
7C0E
100
AcDbEntity
  8
DRAW
  6
Continuous
 62
    62
100
AcDbLine
 10
-678.3281793110245
 20
663.3124266578516
 30
0.0
 11
-678.3281793110245
 21
2098.312426657847
 31
0.0
  0
INSERT
  5
7C6C
330
7C0E
100
AcDbEntity
  8
0
100
AcDbBlockReference
  2
OREFER
 10
0.0
 20
0.0
 30
0.0
  0
ENDBLK
  5
7C6E
330
7C0E
100
AcDbEntity
  8
0
100
AcDbBlockEnd
  0
BLOCK
  5
7CD6
330
7CB3
100
AcDbEntity
  8
0
100
AcDbBlockBegin
  2
A$C7B493DA9
 70
     0
 10
0.0
 20
0.0
 30
0.0
  3
A$C7B493DA9
  1

  0
CIRCLE
  5
7CB4
330
7CB3
100
AcDbEntity
  8
0
100
AcDbCircle
 10
249.9999959252154
 20
364.7932768979007
 30
0.0
 40
57.0
  0
ARC
  5
7CB5
330
7CB3
100
AcDbEntity
  8
0
  6
Continuous
100
AcDbCircle
 10
5024.999995925213
 20
219.8381106364997
 30
0.0
 40
5000.0
100
AcDbArc
 50
178.4972998456237
 51
181.0878450356233
  0
LINE
  5
7CB6
330
7CB3
100
AcDbEntity
  8
CENTER
100
AcDbLine
 10
249.9999959252158
 20
539.5262191521038
 30
0.0
 11
249.9999959252146
 21
0.0000021208949192
 31
0.0
  0
LINE
  5
7CB7
330
7CB3
100
AcDbEntity
  8
0
100
AcDbLine
 10
399.9999959252164
 20
529.7881106364992
 30
0.0
 11
109.9999959252149
 21
529.7881106365004
 31
0.0
  0
CIRCLE
  5
7CB8
330
7CB3
100
AcDbEntity
  8
0
100
AcDbCircle
 10
249.9999959252154
 20
364.7932768979007
 30
0.0
 40
45.0
  0
LINE
  5
7CB9
330
7CB3
100
AcDbEntity
  8
CENTER
  6
CENTER2
100
AcDbLine
 10
163.1319959252159
 20
364.7932768979007
 30
0.0
 11
336.8679959252157
 21
364.7932768979007
 31
0.0
  0
ARC
  5
7CBA
330
7CB3
100
AcDbEntity
  8
0
100
AcDbCircle
 10
249.9999959252154
 20
4.793276897900796
 30
0.0
 40
500.0
100
AcDbArc
 50
77.9057691882472
 51
102.0942308117527
  0
ARC
  5
7CBB
330
7CB3
100
AcDbEntity
  8
0
100
AcDbCircle
 10
176.6679582838987
 20
347.024795398714
 30
0.0
 40
150.0
100
AcDbArc
 50
102.0942308117527
 51
178.4972998456237
  0
LINE
  5
7CBC
330
7CB3
100
AcDbEntity
  8
0
100
AcDbLine
 10
109.999995925215
 20
529.7881106365004
 30
0.0
 11
-0.0000040747850107
 21
419.8381106365006
 31
0.0
  0
LINE
  5
7CBD
330
7CB3
100
AcDbEntity
  8
0
100
AcDbLine
 10
458.3342671726882
 20
479.7881106364894
 30
0.0
 11
789.9898885595562
 21
479.7881106364894
 31
0.0
  0
ARC
  5
7CBE
330
7CB3
100
AcDbEntity
  8
0
  6
Continuous
100
AcDbCircle
 10
-365.0050577576119
 20
247.962979622921
 30
0.0
 40
1200.0
100
AcDbArc
 50
353.6244755847773
 51
6.042955888589662
  0
CIRCLE
  5
7CBF
330
7CB3
100
AcDbEntity
  8
0
  6
Continuous
100
AcDbCircle
 10
669.9949422423859
 20
329.7881106364939
 30
0.0
 40
57.0
  0
CIRCLE
  5
7CC0
330
7CB3
100
AcDbEntity
  8
0
  6
Continuous
100
AcDbCircle
 10
669.9949422423859
 20
329.7881106364939
 30
0.0
 40
45.0
  0
LINE
  5
7CC1
330
7CB3
100
AcDbEntity
  8
CENTER
  6
CENTER2
100
AcDbLine
 10
591.7129916023059
 20
329.7881106364939
 30
0.0
 11
748.276892882466
 21
329.7881106364939
 31
0.0
  0
ARC
  5
7CC2
330
7CB3
100
AcDbEntity
  8
0
  6
Continuous
100
AcDbCircle
 10
669.9949422424133
 20
-245.2118893635105
 30
0.0
 40
700.0
100
AcDbArc
 50
83.10750120004476
 51
96.89249879995522
  0
ARC
  5
7CC3
330
7CB3
100
AcDbEntity
  8
0
  6
Continuous
100
AcDbCircle
 10
743.7991644513104
 20
365.3435436514941
 30
0.0
 40
85.0
100
AcDbArc
 50
6.042955888589647
 51
83.10750120004476
  0
LINE
  5
7CC4
330
7CB3
100
AcDbEntity
  8
0
100
AcDbLine
 10
789.9898885595562
 20
479.7881106364894
 30
0.0
 11
859.9898885595562
 21
409.7881106364893
 31
0.0
  0
ARC
  5
7CC5
330
7CB3
100
AcDbEntity
  8
0
100
AcDbCircle
 10
323.332033566533
 20
347.024795398714
 30
0.0
 40
150.0
100
AcDbArc
 50
1.502700154376207
 51
77.9057691882472
  0
LINE
  5
7CC6
330
7CB3
100
AcDbEntity
  8
0
100
AcDbLine
 10
444.1921315489572
 20
485.6459750127584
 30
0.0
 11
399.9999959252164
 21
529.7881106364992
 31
0.0
  0
ARC
  5
7CC7
330
7CB3
100
AcDbEntity
  8
0
100
AcDbCircle
 10
458.3342671726882
 20
499.7881106364893
 30
0.0
 40
20.0
100
AcDbArc
 50
224.9999999999953
 51
270.0
  0
ARC
  5
7CC8
330
7CB3
100
AcDbEntity
  8
0
  6
Continuous
100
AcDbCircle
 10
1704.994942242383
 20
247.962979622921
 30
0.0
 40
1200.0
100
AcDbArc
 50
173.9570441114103
 51
186.3755244152193
  0
ARC
  5
7CC9
330
7CB3
100
AcDbEntity
  8
0
  6
Continuous
100
AcDbCircle
 10
-4525.000004074782
 20
219.8381106364997
 30
0.0
 40
5000.0
100
AcDbArc
 50
358.9121549643766
 51
1.502700154376183
  0
ARC
  5
7CCA
330
7CB3
100
AcDbEntity
  8
0
  6
Continuous
100
AcDbCircle
 10
596.1907200334608
 20
365.3435436514874
 30
0.0
 40
85.0
100
AcDbArc
 50
96.89249879995522
 51
173.9570441114103
  0
LINE
  5
7CCB
330
7CB3
100
AcDbEntity
  8
0
100
AcDbLine
 10
859.9898885595562
 20
49.73812981989602
 30
0.0
 11
859.9898885595562
 21
409.7881106364893
 31
0.0
  0
ARC
  5
7CCC
330
7CB3
100
AcDbEntity
  8
0
100
AcDbCircle
 10
819.9898885595562
 20
49.73812981989602
 30
0.0
 40
40.0
100
AcDbArc
 50
270.0
 51
360.0
  0
LINE
  5
7CCD
330
7CB3
100
AcDbEntity
  8
0
100
AcDbLine
 10
39.99999592521589
 20
9.738129819896016
 30
0.0
 11
819.9898885595562
 21
9.738129819896016
 31
0.0
  0
ARC
  5
7CCE
330
7CB3
100
AcDbEntity
  8
0
  6
Continuous
100
AcDbCircle
 10
743.0991642356375
 20
124.1484683541085
 30
0.0
 40
85.0
100
AcDbArc
 50
276.826813874701
 51
353.6244755847773
  0
ARC
  5
7CCF
330
7CB3
100
AcDbEntity
  8
0
  6
Continuous
100
AcDbCircle
 10
669.9949422424179
 20
734.7881106364994
 30
0.0
 40
700.0
100
AcDbArc
 50
263.1731861252989
 51
276.826813874701
  0
ARC
  5
7CD0
330
7CB3
100
AcDbEntity
  8
0
  6
Continuous
100
AcDbCircle
 10
596.8907202491335
 20
124.1484683541161
 30
0.0
 40
85.0
100
AcDbArc
 50
186.3755244152193
 51
263.1731861252989
  0
ARC
  5
7CD1
330
7CB3
100
AcDbEntity
  8
0
  6
Continuous
100
AcDbCircle
 10
384.1150285642143
 20
126.6201063786749
 30
0.0
 40
90.0
100
AcDbArc
 50
271.5652100168254
 51
358.9121549643766
  0
ARC
  5
7CD2
330
7CB3
100
AcDbEntity
  8
0
  6
Continuous
100
AcDbCircle
 10
249.9999959252154
 20
5034.788110636499
 30
0.0
 40
5000.0
100
AcDbArc
 50
268.4347899831745
 51
271.5652100168254
  0
ARC
  5
7CD3
330
7CB3
100
AcDbEntity
  8
0
100
AcDbCircle
 10
39.99999592521589
 20
49.73812981989602
 30
0.0
 40
40.0
100
AcDbArc
 50
180.0
 51
270.0
  0
LINE
  5
7CD4
330
7CB3
100
AcDbEntity
  8
0
100
AcDbLine
 10
-0.0000040747841012
 20
49.73812981989595
 30
0.0
 11
-0.0000040747850107
 21
419.8381106365006
 31
0.0
  0
ARC
  5
7CD5
330
7CB3
100
AcDbEntity
  8
0
  6
Continuous
100
AcDbCircle
 10
115.8849632862166
 20
126.6201063786749
 30
0.0
 40
90.0
100
AcDbArc
 50
181.0878450356233
 51
268.4347899831745
  0
ENDBLK
  5
7CD7
330
7CB3
100
AcDbEntity
  8
0
100
AcDbBlockEnd
  0
BLOCK
  5
8360
330
835C
100
AcDbEntity
  8
0
100
AcDbBlockBegin
  2
*U4
 70
     1
 10
0.0
 20
0.0
 30
0.0
  3
*U4
  1

  0
TEXT
  5
835D
330
835C
100
AcDbEntity
  8
0
100
AcDbText
 10
1.9327459004445
 20
-2.486795878345354
 30
0.0
 40
0.5
  1
NOTE: CHECK ALL DXF FILES BEFORE USING.
100
AcDbText
  0
TEXT
  5
835E
330
835C
100
AcDbEntity
  8
0
100
AcDbText
 10
1.9327459004445
 20
-3.320129211678687
 30
0.0
 40
0.5
  1
DOMAIN INDUSTRIES DOES NOT WARRANT AND
100
AcDbText
  0
TEXT
  5
835F
330
835C
100
AcDbEntity
  8
0
100
AcDbText
 10
1.9327459004445
 20
-4.153462545012019
 30
0.0
 40
0.5
  1
IS NOT LIABLE FOR ACCURACY OF DRAWING.
100
AcDbText
  0
ENDBLK
  5
8361
330
835C
100
AcDbEntity
  8
0
100
AcDbBlockEnd
  0
ENDSEC
  0
SECTION
  2
ENTITIES
  0
INSERT
  5
576
330
18
100
AcDbEntity
  8
0
100
AcDbBlockReference
  2
OREFER
 10
4395.120823043212
 20
4638.917511086655
 30
0.0
 41
0.03937
 42
0.03937
 43
0.03937
  0
INSERT
  5
7BD5
330
18
100
AcDbEntity
  8
0
100
AcDbBlockReference
  2
OREFER
 10
4395.120823043212
 20
4638.917511086655
 30
0.0
 41
0.03937
 42
0.03937
 43
0.03937
  0
INSERT
  5
7BD6
330
18
100
AcDbEntity
  8
0
100
AcDbBlockReference
  2
OREFER
 10
4395.120823043212
 20
4638.917511086655
 30
0.0
 41
0.03937
 42
0.03937
 43
0.03937
  0
INSERT
  5
8368
330
18
100
AcDbEntity
  8
0
100
AcDbBlockReference
  2
*U4
 10
4630.151328973081
 20
4813.749924442227
 30
0.0
  0
TEXT
  5
8369
330
18
100
AcDbEntity
  8
0
 62
     5
100
AcDbText
 10
4632.013450851618
 20
4808.128753503339
 30
0.0
 40
0.5
  1
(C)2009 DOMAIN INDUSTRIES, INC.
100
AcDbText
  0
MTEXT
  5
88B8
330
18
100
AcDbEntity
  8
0
100
AcDbMText
 10
4636.56563782414
 20
4825.514530087589
 30
0.0
 40
0.59055
 41
4.3973
 71
     1
 72
     5
  1
PALERMO(BE-127)
 73
     1
 44
1.0
  0
MTEXT
  5
88BB
330
18
100
AcDbEntity
  8
0
 62
     5
100
AcDbMText
 10
4642.909376275623
 20
4813.56005264061
 30
0.0
 40
0.1275588
 41
0.0
 71
     9
 72
     1
  1
{\fArial|b0|i0|c0|p34;\H0.9259x;Use this line for FLUSH MOUNT CUT}
 73
     1
 44
1.0
  0
MTEXT
  5
88BC
330
18
100
AcDbEntity
  8
0
 62
     5
100
AcDbMText
 10
4638.225180404555
 20
4815.698111081655
 30
0.0
 40
0.141732
 41
7.456293378512335
 71
     1
 72
     5
  1
{\fArial|b0|i0|c0|p34;Please check actual template against physical sink unit for most accurate cut!}
 73
     1
 44
1.0
  0
MTEXT
  5
88BD
330
18
100
AcDbEntity
  8
0
 62
     5
100
AcDbMText
 10
4638.225180404555
 20
4816.273119767327
 30
0.0
 40
0.141732
 41
7.456293378512335
 71
     1
 72
     5
  1
{\fArial|b1|i0|c0|p34;Use inside line for flush mount cut:\fArial|b0|i0|c0|p34;\PSink wall is flush to the edge of countertop opening.}
 73
     1
 44
1.0
  0
MTEXT
  5
88BE
330
18
100
AcDbEntity
  8
0
 62
     5
100
AcDbMText
 10
4638.225180404555
 20
4816.940871783842
 30
0.0
 40
0.141732
 41
7.456293378512335
 71
     1
 72
     5
  1
{\fArial|b1|i0|c0|p34;Use outside line for reveal mount cut:\fArial|b0|i0|c0|p34;\PSink rim is 1/4" revealed from the coutnertop opening.}
 73
     1
 44
1.0
  0
HATCH
  5
88C6
330
18
100
AcDbEntity
  8
0
  6
ByBlock
 62
     1
100
AcDbHatch
 10
0.0
 20
0.0
 30
0.0
210
0.0
220
0.0
230
1.0
  2
ANSI31
 70
     0
 71
     0
 91
        1
 92
        5
 93
        9
 72
     4
 94
        3
 73
     0
 74
     0
 95
       10
 96
        6
 40
168.1890314628041
 40
168.1890314628041
 40
168.1890314628041
 40
168.1890314628041
 40
240.3970488653276
 40
404.4385438063731
 40
531.2097876496541
 40
531.2097876496541
 40
531.2097876496541
 40
531.2097876496541
 10
4642.527112815318
 20
4822.286595508257
 10
4642.552303938964
 20
4822.260958557765
 10
4642.614210283766
 20
4822.167057270585
 10
4642.561927094736
 20
4821.950748190459
 10
4642.628669090314
 20
4821.816743224198
 10
4642.668158740868
 20
4821.762086635686
 72
     1
 10
4642.668158740868
 20
4821.762086635686
 11
4643.786170340535
 21
4821.762086635686
 72
     1
 10
4643.786170340535
 20
4821.762086635686
 11
4643.786170340535
 21
4821.97876492321
 72
     1
 10
4643.786170340535
 20
4821.97876492321
 11
4643.959398340535
 21
4821.97876492321
 72
     1
 10
4643.959398340535
 20
4821.97876492321
 11
4643.959398340535
 21
4821.762086635686
 72
     1
 10
4643.959398340535
 20
4821.762086635686
 11
4644.885311876405
 21
4821.762086635686
 72
     1
 10
4644.885311876405
 20
4821.762086635686
 11
4644.885311876405
 21
4822.207855508257
 72
     2
 10
4644.806571876405
 20
4822.207855508257
 40
0.07874
 50
0.0
 51
90.0
 73
     1
 72
     1
 10
4644.806571876405
 20
4822.286595508257
 11
4642.527112815319
 21
4822.286595508257
 97
        0
 75
     0
 76
     1
 52
0.0
 41
0.015748
 77
     0
 78
     1
 53
45.0
 43
4633.709809914085
 44
4821.220447340802
 45
-0.0353552683486493
 46
0.0353552683486493
 79
     0
 47
2.847268091439218
 98
        1
 10
4643.107086339413
 20
4822.07368861504
  0
LEADER
  5
88C7
330
18
100
AcDbEntity
  8
DIM
100
AcDbLeader
  3
B
 73
     0
 40
0.07874
 41
0.2624666666666666
 76
     2
 10
4645.117316221809
 20
4821.665132343858
 30
0.0
 10
4643.406000823224
 20
4821.910214131701
 30
0.0
340
88C8
213
0.0
223
-0.03937
233
0.0
1001
ACAD
1000
DSTYLE
1002
{
1070
   147
1040
0.3
1070
    77
1070
     0
1002
}
  0
MTEXT
  5
88C8
102
{ACAD_REACTORS
330
88C7
102
}
330
18
100
AcDbEntity
  8
DIM
100
AcDbMText
 10
4645.692000823224
 20
4821.949584131702
 30
0.0
 40
0.07874
 41
0.015748
 71
     1
 72
     1
  1
SINK
 73
     1
 44
1.0
  0
LEADER
  5
88C9
330
18
100
AcDbEntity
  8
DIM
100
AcDbLeader
  3
B
 73
     0
 40
0.07874
 41
0.47244
 76
     2
 10
4643.809398955347
 20
4821.517359948273
 30
0.0
 10
4645.417842029977
 20
4821.160034348114
 30
0.0
340
88CA
213
0.0
223
0.03937
233
0.0
1001
ACAD
1000
DSTYLE
1002
{
1070
   147
1040
0.3
1070
    77
1070
     0
1002
}
  0
MTEXT
  5
88CA
102
{ACAD_REACTORS
330
88C9
102
}
330
18
100
AcDbEntity
  8
DIM
100
AcDbMText
 10
4643.131842029977
 20
4821.120664348114
 30
0.0
 40
0.07874
 41
0.015748
 71
     9
 72
     1
  1
SCREWS
 73
     1
 44
1.0
  0
LEADER
  5
88CB
330
18
100
AcDbEntity
  8
DIM
100
AcDbLeader
  3
B
 73
     0
 40
0.07874
 41
0.6036733333333333
 76
     2
 10
4643.385647051654
 20
4821.591975010562
 30
0.0
 10
4645.097793866031
 20
4821.352184013766
 30
0.0
340
88CC
213
0.0
223
0.03937
233
0.0
1001
ACAD
1000
DSTYLE
1002
{
1070
   147
1040
0.3
1070
    77
1070
     0
1002
}
  0
MTEXT
  5
88CC
102
{ACAD_REACTORS
330
88CB
102
}
330
18
100
AcDbEntity
  8
DIM
100
AcDbMText
 10
4642.811793866031
 20
4821.312814013765
 30
0.0
 40
0.07874
 41
0.015748
 71
     9
 72
     1
  1
FASTENER
 73
     1
 44
1.0
  0
LWPOLYLINE
  5
88CD
330
18
100
AcDbEntity
  8
0
 62
     5
100
AcDbPolyline
 90
        2
 70
     0
 10
4643.168209815335
 20
4813.384702624692
 40
0.0710662770671616
 41
0.0118443795111936
 10
4643.293838431405
 20
4813.259074008623
 40
0.0118443795111936
 41
0.0118443795111936
  0
LWPOLYLINE
  5
88CE
330
18
100
AcDbEntity
  8
0
 62
     5
100
AcDbPolyline
 90
        2
 70
     0
 43
0.0191999616
 10
4642.999616602582
 20
4813.553295837445
 10
4643.169321890655
 20
4813.383590549372
  0
SPLINE
  5
88CF
330
18
100
AcDbEntity
  8
DIM
100
AcDbSpline
210
0.0
220
0.0
230
1.0
 70
     8
 71
     3
 72
    10
 73
     6
 74
     0
 42
0.0000000001
 43
0.0000000001
 40
168.1890314628041
 40
168.1890314628041
 40
168.1890314628041
 40
168.1890314628041
 40
240.3970488653276
 40
404.4385438063731
 40
531.2097876496541
 40
531.2097876496541
 40
531.2097876496541
 40
531.2097876496541
 10
4642.527112815318
 20
4822.286595508257
 30
0.0
 10
4642.552303938964
 20
4822.260958557765
 30
0.0
 10
4642.614210283766
 20
4822.167057270585
 30
0.0
 10
4642.561927094736
 20
4821.950748190459
 30
0.0
 10
4642.628669090314
 20
4821.816743224198
 30
0.0
 10
4642.668158740868
 20
4821.762086635686
 30
0.0
  0
LINE
  5
88D0
330
18
100
AcDbEntity
  8
DIM
100
AcDbLine
 10
4643.872784340536
 20
4822.077046635686
 30
0.0
 11
4643.872784340536
 21
4821.4784074381
 31
0.0
  0
LINE
  5
88D1
330
18
100
AcDbEntity
  8
DIM
  6
ByBlock
100
AcDbLine
 10
4643.786170340535
 20
4821.97876492321
 30
0.0
 11
4643.786170340535
 21
4821.762086635686
 31
0.0
  0
LINE
  5
88D2
330
18
100
AcDbEntity
  8
DIM
100
AcDbLine
 10
4642.527112815318
 20
4822.286595508258
 30
0.0
 11
4644.806571876405
 21
4822.286595508258
 31
0.0
  0
ARC
  5
88D3
330
18
100
AcDbEntity
  8
DIM
100
AcDbCircle
 10
4644.806571876405
 20
4822.207855508257
 30
0.0
 40
0.07874
100
AcDbArc
 50
0.0
 51
90.0
  0
LINE
  5
88D4
330
18
100
AcDbEntity
  8
DIM
100
AcDbLine
 10
4644.885311876405
 20
4822.207855508257
 30
0.0
 11
4644.885311876405
 21
4821.762086635686
 31
0.0
  0
LINE
  5
88D5
330
18
100
AcDbEntity
  8
DIM
100
AcDbLine
 10
4644.885311876405
 20
4821.762086635686
 30
0.0
 11
4643.959398340536
 21
4821.762086635686
 31
0.0
  0
LINE
  5
88D6
330
18
100
AcDbEntity
  8
DIM
100
AcDbLine
 10
4644.527287673886
 20
4821.762086635686
 30
0.0
 11
4644.909914025941
 21
4821.762086635686
 31
0.0
  0
LINE
  5
88D7
330
18
100
AcDbEntity
  8
DIM
100
AcDbLine
 10
4645.024971373621
 20
4821.734759523424
 30
0.0
 11
4644.607215109914
 21
4821.728334257883
 31
0.0
  0
LINE
  5
88D8
330
18
100
AcDbEntity
  8
DIM
100
AcDbLine
 10
4645.120863777033
 20
4821.643315647974
 30
0.0
 11
4645.145448334786
 21
4820.867335923361
 31
0.0
  0
ARC
  5
88D9
330
18
100
AcDbEntity
  8
DIM
100
AcDbCircle
 10
4645.026424466602
 20
4821.640282697351
 30
0.0
 40
0.094488
100
AcDbArc
 50
1.83944125196927
 51
90.88116350371929
  0
ARC
  5
88DA
330
18
100
AcDbEntity
  8
DIM
100
AcDbCircle
 10
4645.026424466602
 20
4821.640282697351
 30
0.0
 40
0.062992
100
AcDbArc
 50
1.83944125196927
 51
90.88116350371929
  0
LINE
  5
88DB
330
18
100
AcDbEntity
  8
DIM
100
AcDbLine
 10
4645.089384006889
 20
4821.642304664432
 30
0.0
 11
4645.114640037678
 21
4820.855888257128
 31
0.0
  0
LINE
  5
88DC
330
18
100
AcDbEntity
  8
DIM
100
AcDbLine
 10
4645.144326594318
 20
4820.912735905293
 30
0.0
 11
4645.114640037678
 21
4820.855888257128
 31
0.0
  0
LINE
  5
88DD
330
18
100
AcDbEntity
  8
DIM
100
AcDbLine
 10
4644.794118420846
 20
4821.699709183661
 30
0.0
 11
4644.751366695325
 21
4821.605274643917
 31
0.0
  0
LINE
  5
88DE
330
18
100
AcDbEntity
  8
DIM
100
AcDbLine
 10
4644.751366695325
 20
4821.605274643917
 30
0.0
 11
4643.920028340535
 21
4821.630745987698
 31
0.0
  0
LINE
  5
88DF
330
18
100
AcDbEntity
  8
DIM
100
AcDbLine
 10
4643.056043103917
 20
4821.657217598033
 30
0.0
 11
4642.998598261633
 21
4821.762086635686
 31
0.0
  0
LINE
  5
88E0
330
18
100
AcDbEntity
  8
DIM
100
AcDbLine
 10
4644.786419278258
 20
4821.549056804349
 30
0.0
 11
4643.920028340535
 21
4821.575602122867
 31
0.0
  0
LINE
  5
88E1
330
18
100
AcDbEntity
  8
DIM
100
AcDbLine
 10
4644.844330607939
 20
4821.676977483521
 30
0.0
 11
4644.786419278258
 21
4821.549056804349
 31
0.0
  0
LINE
  5
88E2
330
18
100
AcDbEntity
  8
DIM
100
AcDbLine
 10
4644.794118420846
 20
4821.699709183661
 30
0.0
 11
4644.844330607939
 21
4821.676977483521
 31
0.0
  0
LINE
  5
88E3
330
18
100
AcDbEntity
  8
DIM
100
AcDbLine
 10
4643.022846869942
 20
4821.603090831334
 30
0.0
 11
4642.950257685718
 21
4821.735606782133
 31
0.0
  0
LINE
  5
88E4
330
18
100
AcDbEntity
  8
DIM
100
AcDbLine
 10
4642.950257685718
 20
4821.735606782133
 30
0.0
 11
4642.998598261633
 21
4821.762086635686
 31
0.0
  0
LINE
  5
88E5
330
18
100
AcDbEntity
  8
DIM
100
AcDbLine
 10
4644.046012340536
 20
4821.571742103952
 30
0.0
 11
4644.046012340536
 21
4821.555994103951
 31
0.0
  0
LINE
  5
88E6
330
18
100
AcDbEntity
  8
DIM
100
AcDbLine
 10
4643.699556340535
 20
4821.571742103952
 30
0.0
 11
4643.699556340535
 21
4821.555994103951
 31
0.0
  0
ARC
  5
88E7
330
18
100
AcDbEntity
  8
DIM
100
AcDbCircle
 10
4643.872784340536
 20
4821.600225394159
 30
0.0
 40
0.1043282760205438
100
AcDbArc
 50
205.0850188777117
 51
260.0888321729902
  0
LINE
  5
88E8
330
18
100
AcDbEntity
  8
DIM
100
AcDbLine
 10
4644.046012340536
 20
4821.571742103952
 30
0.0
 11
4643.920028340535
 21
4821.571742103952
 31
0.0
  0
LINE
  5
88E9
330
18
100
AcDbEntity
  8
DIM
100
AcDbLine
 10
4644.046012340536
 20
4821.555994103951
 30
0.0
 11
4643.699556340535
 21
4821.555994103951
 31
0.0
  0
LINE
  5
88EA
330
18
100
AcDbEntity
  8
DIM
100
AcDbLine
 10
4643.872784340536
 20
4821.514824292855
 30
0.0
 11
4643.854827241868
 21
4821.497454134631
 31
0.0
  0
LINE
  5
88EB
330
18
100
AcDbEntity
  8
DIM
100
AcDbLine
 10
4643.872784340536
 20
4821.514824292855
 30
0.0
 11
4643.890741439203
 21
4821.497454134631
 31
0.0
  0
ARC
  5
88EC
330
18
100
AcDbEntity
  8
DIM
100
AcDbCircle
 10
4643.872784340536
 20
4821.600225394159
 30
0.0
 40
0.1043282760205438
100
AcDbArc
 50
279.9111678270097
 51
334.9149811222883
  0
LINE
  5
88ED
330
18
100
AcDbEntity
  8
DIM
100
AcDbLine
 10
4643.817666340535
 20
4821.571742103952
 30
0.0
 11
4643.817666340535
 21
4821.555994103951
 31
0.0
  0
LINE
  5
88EE
330
18
100
AcDbEntity
  8
DIM
100
AcDbLine
 10
4643.927902340535
 20
4821.571742103952
 30
0.0
 11
4643.927902340535
 21
4821.555994103951
 31
0.0
  0
LINE
  5
88EF
330
18
100
AcDbEntity
  8
DIM
100
AcDbLine
 10
4643.825540340535
 20
4821.578497137053
 30
0.0
 11
4643.027316318486
 21
4821.602953892072
 31
0.0
  0
LINE
  5
88F0
330
18
100
AcDbEntity
  8
DIM
100
AcDbLine
 10
4643.825540340535
 20
4821.633641001884
 30
0.0
 11
4643.056043103917
 21
4821.657217598033
 31
0.0
  0
LINE
  5
88F1
330
18
100
AcDbEntity
  8
DIM
100
AcDbLine
 10
4643.786170340535
 20
4821.762086635686
 30
0.0
 11
4642.668158740868
 21
4821.762086635686
 31
0.0
  0
LINE
  5
88F2
330
18
100
AcDbEntity
  8
DIM
100
AcDbLine
 10
4643.825540340535
 20
4821.571742103952
 30
0.0
 11
4643.699556340535
 21
4821.571742103952
 31
0.0
  0
LINE
  5
88F3
330
18
100
AcDbEntity
  8
DESHED
  6
ByBlock
 62
     1
100
AcDbLine
 10
4643.920028340535
 20
4821.954569247398
 30
0.0
 11
4643.90874656547
 21
4821.945686051058
 31
0.0
  0
LINE
  5
88F4
330
18
100
AcDbEntity
  8
DESHED
  6
ByBlock
 62
     1
100
AcDbLine
 10
4643.872784340536
 20
4821.950940540301
 30
0.0
 11
4643.920028340535
 21
4821.936802869998
 31
0.0
  0
LINE
  5
88F5
330
18
100
AcDbEntity
  8
DESHED
  6
ByBlock
 62
     1
100
AcDbLine
 10
4643.920028340535
 20
4821.936802869998
 30
0.0
 11
4643.908252608031
 21
4821.928413186266
 31
0.0
  0
LINE
  5
88F6
330
18
100
AcDbEntity
  8
DESHED
  6
ByBlock
 62
     1
100
AcDbLine
 10
4643.908252608031
 20
4821.928413186266
 30
0.0
 11
4643.920028340535
 21
4821.921010527743
 31
0.0
  0
LINE
  5
88F7
330
18
100
AcDbEntity
  8
DESHED
  6
ByBlock
 62
     1
100
AcDbLine
 10
4643.920028340535
 20
4821.921010527743
 30
0.0
 11
4643.907264664377
 21
4821.910153280986
 31
0.0
  0
LINE
  5
88F8
330
18
100
AcDbEntity
  8
DESHED
  6
ByBlock
 62
     1
100
AcDbLine
 10
4643.907264664377
 20
4821.910153280986
 30
0.0
 11
4643.920028340535
 21
4821.903737647673
 31
0.0
  0
LINE
  5
88F9
330
18
100
AcDbEntity
  8
DESHED
  6
ByBlock
 62
     1
100
AcDbLine
 10
4643.920028340535
 20
4821.903737647673
 30
0.0
 11
4643.906770706936
 21
4821.89534796394
 31
0.0
  0
LINE
  5
88FA
330
18
100
AcDbEntity
  8
DESHED
  6
ByBlock
 62
     1
100
AcDbLine
 10
4643.906770706936
 20
4821.89534796394
 30
0.0
 11
4643.920028340535
 21
4821.886958280209
 31
0.0
  0
LINE
  5
88FB
330
18
100
AcDbEntity
  8
DESHED
  6
ByBlock
 62
     1
100
AcDbLine
 10
4643.920028340535
 20
4821.886958280209
 30
0.0
 11
4643.906276749496
 21
4821.876594561332
 31
0.0
  0
LINE
  5
88FC
330
18
100
AcDbEntity
  8
DESHED
  6
ByBlock
 62
     1
100
AcDbLine
 10
4643.906276749496
 20
4821.876594561332
 30
0.0
 11
4643.920028340535
 21
4821.867711364994
 31
0.0
  0
LINE
  5
88FD
330
18
100
AcDbEntity
  8
DESHED
  6
ByBlock
 62
     1
100
AcDbLine
 10
4643.920028340535
 20
4821.867711364994
 30
0.0
 11
4643.906770706936
 21
4821.856360620908
 31
0.0
  0
LINE
  5
88FE
330
18
100
AcDbEntity
  8
DESHED
  6
ByBlock
 62
     1
100
AcDbLine
 10
4643.906770706936
 20
4821.856360620908
 30
0.0
 11
4643.920028340535
 21
4821.84846444978
 31
0.0
  0
LINE
  5
88FF
330
18
100
AcDbEntity
  8
DESHED
  6
ByBlock
 62
     1
100
AcDbLine
 10
4643.920028340535
 20
4821.84846444978
 30
0.0
 11
4643.907264664377
 21
4821.835139670551
 31
0.0
  0
LINE
  5
8900
330
18
100
AcDbEntity
  8
DESHED
  6
ByBlock
 62
     1
100
AcDbLine
 10
4643.907264664377
 20
4821.835139670551
 30
0.0
 11
4643.920028340535
 21
4821.825269449004
 31
0.0
  0
LINE
  5
8901
330
18
100
AcDbEntity
  8
DESHED
  6
ByBlock
 62
     1
100
AcDbLine
 10
4643.920028340535
 20
4821.825269449004
 30
0.0
 11
4643.907032113967
 21
4821.808469212324
 31
0.0
  0
LINE
  5
8902
330
18
100
AcDbEntity
  8
DESHED
  6
ByBlock
 62
     1
100
AcDbLine
 10
4643.907032113967
 20
4821.808469212324
 30
0.0
 11
4643.920028340535
 21
4821.797107697523
 31
0.0
  0
LINE
  5
8903
330
18
100
AcDbEntity
  8
DESHED
  6
ByBlock
 62
     1
100
AcDbLine
 10
4643.920028340535
 20
4821.797107697523
 30
0.0
 11
4643.905015502225
 21
4821.77993478955
 31
0.0
  0
LINE
  5
8904
330
18
100
AcDbEntity
  8
DESHED
  6
ByBlock
 62
     1
100
AcDbLine
 10
4643.905015502225
 20
4821.77993478955
 30
0.0
 11
4643.920028340535
 21
4821.770597486136
 31
0.0
  0
LINE
  5
8905
330
18
100
AcDbEntity
  8
DESHED
  6
ByBlock
 62
     1
100
AcDbLine
 10
4643.920028340535
 20
4821.770597486136
 30
0.0
 11
4643.905015502225
 21
4821.755030684085
 31
0.0
  0
LINE
  5
8906
330
18
100
AcDbEntity
  8
DESHED
  6
ByBlock
 62
     1
100
AcDbLine
 10
4643.905015502225
 20
4821.755030684085
 30
0.0
 11
4643.920028340535
 21
4821.7415624818
 31
0.0
  0
LINE
  5
8907
330
18
100
AcDbEntity
  8
DESHED
  6
ByBlock
 62
     1
100
AcDbLine
 10
4643.840553178846
 20
4821.77993478955
 30
0.0
 11
4643.825540340535
 21
4821.770597486136
 31
0.0
  0
LINE
  5
8908
330
18
100
AcDbEntity
  8
DESHED
  6
ByBlock
 62
     1
100
AcDbLine
 10
4643.825540340535
 20
4821.797107697523
 30
0.0
 11
4643.840553178846
 21
4821.77993478955
 31
0.0
  0
LINE
  5
8909
330
18
100
AcDbEntity
  8
DESHED
  6
ByBlock
 62
     1
100
AcDbLine
 10
4643.838536567103
 20
4821.808469212324
 30
0.0
 11
4643.825540340535
 21
4821.797107697523
 31
0.0
  0
LINE
  5
890A
330
18
100
AcDbEntity
  8
DESHED
  6
ByBlock
 62
     1
100
AcDbLine
 10
4643.825540340535
 20
4821.825269449004
 30
0.0
 11
4643.838536567103
 21
4821.808469212324
 31
0.0
  0
LINE
  5
890B
330
18
100
AcDbEntity
  8
DESHED
  6
ByBlock
 62
     1
100
AcDbLine
 10
4643.838304016692
 20
4821.835139670551
 30
0.0
 11
4643.825540340535
 21
4821.825269449004
 31
0.0
  0
LINE
  5
890C
330
18
100
AcDbEntity
  8
DESHED
  6
ByBlock
 62
     1
100
AcDbLine
 10
4643.825540340535
 20
4821.84846444978
 30
0.0
 11
4643.838304016692
 21
4821.835139670551
 31
0.0
  0
LINE
  5
890D
330
18
100
AcDbEntity
  8
DESHED
  6
ByBlock
 62
     1
100
AcDbLine
 10
4643.838797974133
 20
4821.856360620908
 30
0.0
 11
4643.825540340535
 21
4821.84846444978
 31
0.0
  0
LINE
  5
890E
330
18
100
AcDbEntity
  8
DESHED
  6
ByBlock
 62
     1
100
AcDbLine
 10
4643.825540340535
 20
4821.867711364994
 30
0.0
 11
4643.838797974133
 21
4821.856360620908
 31
0.0
  0
LINE
  5
890F
330
18
100
AcDbEntity
  8
DESHED
  6
ByBlock
 62
     1
100
AcDbLine
 10
4643.839291931574
 20
4821.876594561332
 30
0.0
 11
4643.825540340535
 21
4821.867711364994
 31
0.0
  0
LINE
  5
8910
330
18
100
AcDbEntity
  8
DESHED
  6
ByBlock
 62
     1
100
AcDbLine
 10
4643.825540340535
 20
4821.886958280209
 30
0.0
 11
4643.839291931574
 21
4821.876594561332
 31
0.0
  0
LINE
  5
8911
330
18
100
AcDbEntity
  8
DESHED
  6
ByBlock
 62
     1
100
AcDbLine
 10
4643.838797974133
 20
4821.89534796394
 30
0.0
 11
4643.825540340535
 21
4821.886958280209
 31
0.0
  0
LINE
  5
8912
330
18
100
AcDbEntity
  8
DESHED
  6
ByBlock
 62
     1
100
AcDbLine
 10
4643.825540340535
 20
4821.903737647673
 30
0.0
 11
4643.838797974133
 21
4821.89534796394
 31
0.0
  0
LINE
  5
8913
330
18
100
AcDbEntity
  8
DESHED
  6
ByBlock
 62
     1
100
AcDbLine
 10
4643.838304016692
 20
4821.910153280986
 30
0.0
 11
4643.825540340535
 21
4821.903737647673
 31
0.0
  0
LINE
  5
8914
330
18
100
AcDbEntity
  8
DESHED
  6
ByBlock
 62
     1
100
AcDbLine
 10
4643.825540340535
 20
4821.921010527743
 30
0.0
 11
4643.838304016692
 21
4821.910153280986
 31
0.0
  0
LINE
  5
8915
330
18
100
AcDbEntity
  8
DESHED
  6
ByBlock
 62
     1
100
AcDbLine
 10
4643.837316073041
 20
4821.928413186266
 30
0.0
 11
4643.825540340535
 21
4821.921010527743
 31
0.0
  0
LINE
  5
8916
330
18
100
AcDbEntity
  8
DESHED
  6
ByBlock
 62
     1
100
AcDbLine
 10
4643.825540340535
 20
4821.936802869998
 30
0.0
 11
4643.837316073041
 21
4821.928413186266
 31
0.0
  0
LINE
  5
8917
330
18
100
AcDbEntity
  8
DESHED
  6
ByBlock
 62
     1
100
AcDbLine
 10
4643.872784340536
 20
4821.950940540301
 30
0.0
 11
4643.825540340535
 21
4821.936802869998
 31
0.0
  0
LINE
  5
8918
330
18
100
AcDbEntity
  8
DESHED
  6
ByBlock
 62
     1
100
AcDbLine
 10
4643.825540340535
 20
4821.954569247398
 30
0.0
 11
4643.8368221156
 21
4821.945686051058
 31
0.0
  0
MTEXT
  5
8919
330
18
100
AcDbEntity
  8
DIM
100
AcDbMText
 10
4642.581821076948
 20
4822.604951404985
 30
0.0
 40
0.07874
 41
0.0
 71
     9
 72
     1
  1
COUNTERTOP
 73
     1
 44
1.0
  0
SPLINE
  5
891A
330
18
100
AcDbEntity
  8
DIM
100
AcDbSpline
210
0.0
220
0.0
230
1.0
 70
     8
 71
     3
 72
    10
 73
     6
 74
     0
 42
0.0000000001
 43
0.0000000001
 40
168.1890314628041
 40
168.1890314628041
 40
168.1890314628041
 40
168.1890314628041
 40
240.3970488653276
 40
404.4385438063731
 40
531.2097876496541
 40
531.2097876496541
 40
531.2097876496541
 40
531.2097876496541
 10
4642.527112815318
 20
4822.286595508257
 30
0.0
 10
4642.552303938964
 20
4822.260958557765
 30
0.0
 10
4642.614210283766
 20
4822.167057270585
 30
0.0
 10
4642.561927094736
 20
4821.950748190459
 30
0.0
 10
4642.628669090314
 20
4821.816743224198
 30
0.0
 10
4642.668158740868
 20
4821.762086635686
 30
0.0
  0
LINE
  5
891B
330
18
100
AcDbEntity
  8
DESHED
  6
ByBlock
 62
     1
370
     0
100
AcDbLine
 10
4643.959398340536
 20
4821.97876492321
 30
0.0
 11
4643.959398340536
 21
4821.762086635686
 31
0.0
  0
LINE
  5
891C
330
18
100
AcDbEntity
  8
DIM
 62
     1
370
     0
100
AcDbLine
 10
4643.959398340536
 20
4821.762086635686
 30
0.0
 11
4644.885311876405
 21
4821.762086635686
 31
0.0
  0
LINE
  5
891D
330
18
100
AcDbEntity
  8
DIM
 62
     1
370
     0
100
AcDbLine
 10
4644.885311876405
 20
4821.762086635686
 30
0.0
 11
4644.885311876405
 21
4822.207855508257
 31
0.0
  0
ARC
  5
891E
330
18
100
AcDbEntity
  8
DIM
 62
     1
370
     0
100
AcDbCircle
 10
4644.806571876405
 20
4822.207855508257
 30
0.0
 40
0.07874
100
AcDbArc
 50
0.0
 51
90.0
  0
LINE
  5
891F
330
18
100
AcDbEntity
  8
DIM
 62
     1
370
     0
100
AcDbLine
 10
4644.806571876405
 20
4822.286595508258
 30
0.0
 11
4642.527112815318
 21
4822.286595508258
 31
0.0
  0
LINE
  5
8920
330
18
100
AcDbEntity
  8
DIM
 62
     1
370
     0
100
AcDbLine
 10
4642.668158740868
 20
4821.762086635686
 30
0.0
 11
4643.786170340535
 21
4821.762086635686
 31
0.0
  0
LINE
  5
8921
330
18
100
AcDbEntity
  8
DESHED
  6
ByBlock
 62
     1
370
     0
100
AcDbLine
 10
4643.786170340535
 20
4821.762086635686
 30
0.0
 11
4643.786170340535
 21
4821.97876492321
 31
0.0
  0
LINE
  5
8922
330
18
100
AcDbEntity
  8
DIM
 62
     1
370
     0
100
AcDbLine
 10
4645.024971373621
 20
4821.734759523424
 30
0.0
 11
4644.607215109914
 21
4821.728334257883
 31
0.0
  0
LINE
  5
8923
330
18
100
AcDbEntity
  8
DIM
 62
     1
370
     0
100
AcDbLine
 10
4644.607699474241
 20
4821.696841982526
 30
0.0
 11
4645.025455737949
 21
4821.703267248066
 31
0.0
  0
ARC
  5
8924
330
18
100
AcDbEntity
  8
DIM
 62
     1
370
     0
100
AcDbCircle
 10
4645.026424466602
 20
4821.640282697351
 30
0.0
 40
0.0629919999999993
100
AcDbArc
 50
1.83944125196927
 51
90.88116350371929
  0
LINE
  5
8925
330
18
100
AcDbEntity
  8
DIM
 62
     1
370
     0
100
AcDbLine
 10
4645.089384006889
 20
4821.642304664432
 30
0.0
 11
4645.114640037678
 21
4820.855888257128
 31
0.0
  0
LINE
  5
8926
330
18
100
AcDbEntity
  8
DIM
 62
     1
370
     0
100
AcDbLine
 10
4645.114640037678
 20
4820.855888257128
 30
0.0
 11
4645.145448334786
 21
4820.867335923361
 31
0.0
  0
LINE
  5
8927
330
18
100
AcDbEntity
  8
DIM
 62
     1
370
     0
100
AcDbLine
 10
4645.145448334786
 20
4820.867335923361
 30
0.0
 11
4645.120863777033
 21
4821.643315647974
 31
0.0
  0
ARC
  5
8928
330
18
100
AcDbEntity
  8
DIM
 62
     1
370
     0
100
AcDbCircle
 10
4645.026424466602
 20
4821.640282697351
 30
0.0
 40
0.0944879999999998
100
AcDbArc
 50
1.83944125196927
 51
90.88116350371929
  0
LINE
  5
8929
330
18
100
AcDbEntity
  8
DIM
 62
     1
370
     0
100
AcDbLine
 10
4644.844330607939
 20
4821.676977483521
 30
0.0
 11
4644.794118420846
 21
4821.699709183661
 31
0.0
  0
LINE
  5
892A
330
18
100
AcDbEntity
  8
DIM
 62
     1
370
     0
100
AcDbLine
 10
4644.794118420846
 20
4821.699709183661
 30
0.0
 11
4644.751366695325
 21
4821.605274643917
 31
0.0
  0
LINE
  5
892B
330
18
100
AcDbEntity
  8
DIM
 62
     1
370
     0
100
AcDbLine
 10
4644.751366695325
 20
4821.605274643917
 30
0.0
 11
4643.935776340535
 21
4821.630263485333
 31
0.0
  0
LINE
  5
892C
330
18
100
AcDbEntity
  8
DIM
 62
     1
370
     0
100
AcDbLine
 10
4643.935776340535
 20
4821.575119620503
 30
0.0
 11
4644.786419278258
 21
4821.549056804349
 31
0.0
  0
LINE
  5
892D
330
18
100
AcDbEntity
  8
DIM
 62
     1
370
     0
100
AcDbLine
 10
4644.786419278258
 20
4821.549056804349
 30
0.0
 11
4644.844330607939
 21
4821.676977483521
 31
0.0
  0
LINE
  5
892E
330
18
100
AcDbEntity
  8
DIM
100
AcDbLine
 10
4643.652312340535
 20
4821.638948527894
 30
0.0
 11
4643.652312340535
 21
4821.583804663063
 31
0.0
  0
LINE
  5
892F
330
18
100
AcDbEntity
  8
DIM
 62
     1
370
     0
100
AcDbLine
 10
4644.093256340536
 20
4821.625438461689
 30
0.0
 11
4644.093256340536
 21
4821.570294596858
 31
0.0
  0
LINE
  5
8930
330
18
100
AcDbEntity
  8
DIM
100
AcDbLine
 10
4645.025455737949
 20
4821.703267248066
 30
0.0
 11
4644.607699474241
 21
4821.696841982526
 31
0.0
  0
LINE
  5
8931
330
18
100
AcDbEntity
  8
DIM
100
AcDbLine
 10
4644.909914025941
 20
4821.762086635686
 30
0.0
 11
4644.916694626791
 21
4821.733094181906
 31
0.0
  0
LINE
  5
8932
330
18
100
AcDbEntity
  8
DIM
100
AcDbLine
 10
4644.626408559672
 20
4821.762086635686
 30
0.0
 11
4644.641346042759
 21
4821.728859205863
 31
0.0
  0
LINE
  5
8933
330
18
100
AcDbEntity
  8
DIM
100
AcDbLine
 10
4644.607215109914
 20
4821.728334257883
 30
0.0
 11
4644.607699474241
 21
4821.696841982526
 31
0.0
  0
LINE
  5
8934
330
18
100
AcDbEntity
  8
DESHED
  6
ByBlock
 62
     1
100
AcDbLine
 10
4643.801918340535
 20
4821.963016923209
 30
0.0
 11
4643.840236392155
 21
4821.963016923209
 31
0.0
  0
LINE
  5
8935
330
18
100
AcDbEntity
  8
DESHED
  6
ByBlock
 62
     1
100
AcDbLine
 10
4643.801918340535
 20
4821.893276835313
 30
0.0
 11
4643.835525113634
 21
4821.893276835313
 31
0.0
  0
LINE
  5
8936
330
18
100
AcDbEntity
  8
DIM
100
AcDbLine
 10
4643.920028340535
 20
4821.655497132101
 30
0.0
 11
4643.920028340535
 21
4821.555994103951
 31
0.0
  0
LINE
  5
8937
330
18
100
AcDbEntity
  8
DIM
100
AcDbLine
 10
4643.825540340535
 20
4821.655497132101
 30
0.0
 11
4643.825540340535
 21
4821.555994103951
 31
0.0
  0
LINE
  5
8938
330
18
100
AcDbEntity
  8
DESHED
  6
ByBlock
 62
     1
370
     0
100
AcDbLine
 10
4643.975146340536
 20
4821.762086635686
 30
0.0
 11
4643.975146340536
 21
4821.746338635687
 31
0.0
  0
LINE
  5
8939
330
18
100
AcDbEntity
  8
DESHED
  6
ByBlock
 62
     1
370
     0
100
AcDbLine
 10
4643.770422340535
 20
4821.746338635687
 30
0.0
 11
4643.770422340535
 21
4821.762086635686
 31
0.0
  0
LINE
  5
893A
330
18
100
AcDbEntity
  8
DESHED
  6
ByBlock
 62
     1
100
AcDbLine
 10
4643.770422340535
 20
4821.746338635687
 30
0.0
 11
4643.801295307869
 21
4821.746338635687
 31
0.0
  0
LINE
  5
893B
330
18
100
AcDbEntity
  8
DESHED
  6
ByBlock
 62
     1
100
AcDbLine
 10
4643.944273373202
 20
4821.746338635687
 30
0.0
 11
4643.975146340536
 21
4821.746338635687
 31
0.0
  0
LINE
  5
893C
330
18
100
AcDbEntity
  8
DIM
100
AcDbLine
 10
4643.809792340536
 20
4821.634123504249
 30
0.0
 11
4643.809792340536
 21
4821.578979639419
 31
0.0
  0
LINE
  5
893D
330
18
100
AcDbEntity
  8
DIM
100
AcDbLine
 10
4643.935776340535
 20
4821.630263485333
 30
0.0
 11
4643.935776340535
 21
4821.575119620503
 31
0.0
  0
LINE
  5
893E
330
18
100
AcDbEntity
  8
DESHED
  6
ByBlock
 62
     1
370
     0
100
AcDbLine
 10
4643.801918340535
 20
4821.746338635687
 30
0.0
 11
4643.801918340535
 21
4821.963016923209
 31
0.0
  0
LINE
  5
893F
330
18
100
AcDbEntity
  8
DESHED
  6
ByBlock
 62
     1
370
     0
100
AcDbLine
 10
4643.943650340536
 20
4821.963016923209
 30
0.0
 11
4643.943650340536
 21
4821.746338635687
 31
0.0
  0
LINE
  5
8940
330
18
100
AcDbEntity
  8
DESHED
  6
ByBlock
 62
     1
100
AcDbLine
 10
4643.786170340535
 20
4821.97876492321
 30
0.0
 11
4643.844960792155
 21
4821.97876492321
 31
0.0
  0
LINE
  5
8941
330
18
100
AcDbEntity
  8
DESHED
  6
ByBlock
 62
     1
100
AcDbLine
 10
4643.905007638774
 20
4821.963016923209
 30
0.0
 11
4643.943650340536
 21
4821.963016923209
 31
0.0
  0
LINE
  5
8942
330
18
100
AcDbEntity
  8
DESHED
  6
ByBlock
 62
     1
100
AcDbLine
 10
4643.910043567436
 20
4821.893276835313
 30
0.0
 11
4643.943650340536
 21
4821.893276835313
 31
0.0
  0
LINE
  5
8943
330
18
100
AcDbEntity
  8
DESHED
  6
ByBlock
 62
     1
100
AcDbLine
 10
4643.844960792155
 20
4821.97876492321
 30
0.0
 11
4643.959398340536
 21
4821.97876492321
 31
0.0
  0
LINE
  5
8944
330
18
100
AcDbEntity
  8
DESHED
 62
     1
100
AcDbLine
 10
4643.959398340536
 20
4821.762874541054
 30
0.0
 11
4643.975146340536
 21
4821.762086635686
 31
0.0
  0
LINE
  5
8945
330
18
100
AcDbEntity
  8
DESHED
  6
ByBlock
 62
     1
100
AcDbLine
 10
4643.959398340536
 20
4821.762086635686
 30
0.0
 11
4643.975146340536
 21
4821.762086635686
 31
0.0
  0
LINE
  5
8946
330
18
100
AcDbEntity
  8
DESHED
  6
ByBlock
 62
     1
100
AcDbLine
 10
4643.770422340535
 20
4821.762086635686
 30
0.0
 11
4643.786170340535
 21
4821.762086635686
 31
0.0
  0
LINE
  5
8947
330
18
100
AcDbEntity
  8
DESHED
  6
ByBlock
 62
     1
100
AcDbLine
 10
4643.837039406895
 20
4821.963016923209
 30
0.0
 11
4643.825540340535
 21
4821.954569247398
 31
0.0
  0
LINE
  5
8948
330
18
100
AcDbEntity
  8
DESHED
  6
ByBlock
 62
     1
100
AcDbLine
 10
4643.908529274177
 20
4821.963016923209
 30
0.0
 11
4643.920028340535
 21
4821.954569247398
 31
0.0
  0
LINE
  5
8949
330
18
100
AcDbEntity
  8
DESHED
  6
ByBlock
 62
     1
100
AcDbLine
 10
4643.801918340535
 20
4821.746338635687
 30
0.0
 11
4643.944273373202
 21
4821.746338635687
 31
0.0
  0
LINE
  5
894A
330
18
100
AcDbEntity
  8
DESHED
  6
ByBlock
 62
     1
100
AcDbLine
 10
4643.905007638774
 20
4821.963290235355
 30
0.0
 11
4643.905007638774
 21
4821.97876492321
 31
0.0
  0
LINE
  5
894B
330
18
100
AcDbEntity
  8
DESHED
  6
ByBlock
 62
     1
100
AcDbLine
 10
4643.840236392155
 20
4821.963051734326
 30
0.0
 11
4643.840236392155
 21
4821.97876492321
 31
0.0
  0
LINE
  5
894C
330
18
100
AcDbEntity
  8
DESHED
  6
ByBlock
 62
     1
100
AcDbLine
 10
4643.90874656547
 20
4821.945686051058
 30
0.0
 11
4643.919204148061
 21
4821.93704950791
 31
0.0
  0
LINE
  5
894D
330
18
100
AcDbEntity
  8
DESHED
  6
ByBlock
 62
     1
100
AcDbLine
 10
4643.8368221156
 20
4821.945686051058
 30
0.0
 11
4643.825540340535
 21
4821.936802869998
 31
0.0
  0
LINE
  5
894E
330
18
100
AcDbEntity
  8
DESHED
  6
ByBlock
 62
     1
100
AcDbLine
 10
4643.920028340535
 20
4821.7415624818
 30
0.0
 11
4643.905015502225
 21
4821.727112735363
 31
0.0
  0
LINE
  5
894F
330
18
100
AcDbEntity
  8
DESHED
  6
ByBlock
 62
     1
100
AcDbLine
 10
4643.905015502225
 20
4821.727112735363
 30
0.0
 11
4643.920028340535
 21
4821.710119215214
 31
0.0
  0
LINE
  5
8950
330
18
100
AcDbEntity
  8
DESHED
  6
ByBlock
 62
     1
100
AcDbLine
 10
4643.920028340535
 20
4821.710119215214
 30
0.0
 11
4643.905015502225
 21
4821.694339509397
 31
0.0
  0
LINE
  5
8951
330
18
100
AcDbEntity
  8
DESHED
  6
ByBlock
 62
     1
100
AcDbLine
 10
4643.905015502225
 20
4821.694339509397
 30
0.0
 11
4643.920028340535
 21
4821.680380525076
 31
0.0
  0
LINE
  5
8952
330
18
100
AcDbEntity
  8
DESHED
  6
ByBlock
 62
     1
100
AcDbLine
 10
4643.920028340535
 20
4821.680380525076
 30
0.0
 11
4643.905015502225
 21
4821.666421560674
 31
0.0
  0
LINE
  5
8953
330
18
100
AcDbEntity
  8
DESHED
  6
ByBlock
 62
     1
100
AcDbLine
 10
4643.905015502225
 20
4821.666421560674
 30
0.0
 11
4643.920028340535
 21
4821.655497132101
 31
0.0
  0
LINE
  5
8954
330
18
100
AcDbEntity
  8
DESHED
  6
ByBlock
 62
     1
100
AcDbLine
 10
4643.840553178846
 20
4821.666421560674
 30
0.0
 11
4643.825540340535
 21
4821.655497132101
 31
0.0
  0
LINE
  5
8955
330
18
100
AcDbEntity
  8
DESHED
  6
ByBlock
 62
     1
100
AcDbLine
 10
4643.825540340535
 20
4821.680380525076
 30
0.0
 11
4643.840553178846
 21
4821.666421560674
 31
0.0
  0
LINE
  5
8956
330
18
100
AcDbEntity
  8
DESHED
  6
ByBlock
 62
     1
100
AcDbLine
 10
4643.840553178846
 20
4821.694339509397
 30
0.0
 11
4643.825540340535
 21
4821.680380525076
 31
0.0
  0
LINE
  5
8957
330
18
100
AcDbEntity
  8
DESHED
  6
ByBlock
 62
     1
100
AcDbLine
 10
4643.825540340535
 20
4821.710119215214
 30
0.0
 11
4643.840553178846
 21
4821.694339509397
 31
0.0
  0
LINE
  5
8958
330
18
100
AcDbEntity
  8
DESHED
  6
ByBlock
 62
     1
100
AcDbLine
 10
4643.840553178846
 20
4821.727112735363
 30
0.0
 11
4643.825540340535
 21
4821.710119215214
 31
0.0
  0
LINE
  5
8959
330
18
100
AcDbEntity
  8
DESHED
  6
ByBlock
 62
     1
100
AcDbLine
 10
4643.825540340535
 20
4821.7415624818
 30
0.0
 11
4643.840553178846
 21
4821.727112735363
 31
0.0
  0
LINE
  5
895A
330
18
100
AcDbEntity
  8
DESHED
  6
ByBlock
 62
     1
100
AcDbLine
 10
4643.840553178846
 20
4821.755030684085
 30
0.0
 11
4643.825540340535
 21
4821.7415624818
 31
0.0
  0
LINE
  5
895B
330
18
100
AcDbEntity
  8
DESHED
  6
ByBlock
 62
     1
100
AcDbLine
 10
4643.825540340535
 20
4821.770597486136
 30
0.0
 11
4643.840553178846
 21
4821.755030684085
 31
0.0
  0
HATCH
  5
895C
330
18
100
AcDbEntity
  8
DESHED
  6
ByBlock
100
AcDbHatch
 10
0.0
 20
0.0
 30
0.0
210
0.0
220
0.0
230
1.0
  2
ANSI31
 70
     0
 71
     0
 91
        2
 92
        7
 72
     0
 73
     1
 93
        9
 10
4643.959398340535
 20
4821.97876492321
 10
4643.905007638773
 20
4821.97876492321
 10
4643.905007638773
 20
4821.963016923209
 10
4643.943650340535
 20
4821.963016923209
 10
4643.943650340535
 20
4821.746338635687
 10
4643.944273373202
 20
4821.746338635687
 10
4643.975146340536
 20
4821.746338635687
 10
4643.975146340536
 20
4821.762086635686
 10
4643.959398340535
 20
4821.762086635686
 97
        0
 92
        7
 72
     0
 73
     1
 93
        8
 10
4643.840236392155
 20
4821.97876492321
 10
4643.786170340535
 20
4821.97876492321
 10
4643.786170340535
 20
4821.762086635686
 10
4643.770422340535
 20
4821.762086635686
 10
4643.770422340535
 20
4821.746338635687
 10
4643.801918340535
 20
4821.746338635687
 10
4643.801918340535
 20
4821.963016923209
 10
4643.840236392155
 20
4821.963016923209
 97
        0
 75
     0
 76
     1
 52
0.0
 41
0.0031496
 77
     0
 78
     1
 53
45.0
 43
4633.709809914085
 44
4821.220447340802
 45
-0.0070710536697299
 46
0.0070710536697299
 79
     0
 47
0.9928036230062964
 98
        2
 10
4643.937060408997
 20
4821.970880660368
 10
4643.797782712081
 20
4821.967753727101
  0
HATCH
  5
895D
330
18
100
AcDbEntity
  8
DESHED
  6
ByBlock
100
AcDbHatch
 10
0.0
 20
0.0
 30
0.0
210
0.0
220
0.0
230
1.0
  2
ANSI31
 70
     0
 71
     0
 91
        2
 92
        7
 72
     0
 73
     1
 93
       12
 10
4643.837316073041
 20
4821.928413186266
 10
4643.825540340535
 20
4821.936802869998
 10
4643.8368221156
 20
4821.945686051058
 10
4643.825540340535
 20
4821.954569247396
 10
4643.837039406893
 20
4821.963016923209
 10
4643.801918340535
 20
4821.963016923209
 10
4643.801918340535
 20
4821.893276835313
 10
4643.835525113634
 20
4821.893276835313
 10
4643.838797974133
 20
4821.89534796394
 10
4643.825540340535
 20
4821.903737647673
 10
4643.838304016692
 20
4821.910153280986
 10
4643.825540340535
 20
4821.921010527743
 97
        0
 92
        7
 72
     0
 73
     1
 93
       13
 10
4643.943650340535
 20
4821.963016923209
 10
4643.908529274177
 20
4821.963016923209
 10
4643.920028340535
 20
4821.954569247396
 10
4643.90874656547
 20
4821.945686051058
 10
4643.919204148061
 20
4821.937049507909
 10
4643.920028340535
 20
4821.936802869998
 10
4643.908252608029
 20
4821.928413186266
 10
4643.920028340535
 20
4821.921010527743
 10
4643.907264664377
 20
4821.910153280986
 10
4643.920028340535
 20
4821.903737647673
 10
4643.906770706936
 20
4821.89534796394
 10
4643.910043567436
 20
4821.893276835313
 10
4643.943650340535
 20
4821.893276835313
 97
        0
 75
     0
 76
     1
 52
270.0
 41
0.0015748
 77
     0
 78
     1
 53
315.0
 43
4633.709809914085
 44
4821.220447340802
 45
0.0035355268348649
 46
0.0035355268348649
 79
     0
 47
0.4906110457808098
 98
        2
 10
4643.817823760524
 20
4821.922842556993
 10
4643.93305012136
 20
4821.914343805165
  0
LINE
  5
895E
330
18
100
AcDbEntity
  8
0
  6
ByBlock
100
AcDbLine
 10
4643.786170340535
 20
4821.97876492321
 30
0.0
 11
4643.959398340536
 21
4821.97876492321
 31
0.0
  0
LINE
  5
895F
330
18
100
AcDbEntity
  8
0
  6
ByBlock
100
AcDbLine
 10
4643.959398340536
 20
4821.762086635686
 30
0.0
 11
4643.959398340536
 21
4821.97876492321
 31
0.0
  0
CIRCLE
  5
896D
330
18
100
AcDbEntity
  8
0
100
AcDbCircle
 10
4640.876802050485
 20
4820.924538207437
 30
0.0
 40
8.2675
  0
CIRCLE
  5
896E
330
18
100
AcDbEntity
  8
DESHED
 62
     0
 48
0.1
100
AcDbCircle
 10
4640.876802050485
 20
4820.924538207437
 30
0.0
 40
8.0175
  0
ENDSEC
  0
SECTION
  2
OBJECTS
  0
DICTIONARY
  5
C
330
0
100
AcDbDictionary
281
     1
  3
ACAD_COLOR
350
5390
  3
ACAD_GROUP
350
D
  3
ACAD_LAYOUT
350
5391
  3
ACAD_MATERIAL
350
538F
  3
ACAD_MLINESTYLE
350
1B
  3
ACAD_PLOTSETTINGS
350
5392
  3
ACAD_PLOTSTYLENAME
350
538D
  3
ACAD_WIPEOUT_VARS
350
8353
  3
ACDBVARIABLEDICTIONARY
350
2867
  3
ASE_INDEX_DICTIONARY
350
87FF
  0
DICTIONARY
  5
5390
102
{ACAD_REACTORS
330
C
102
}
330
C
100
AcDbDictionary
281
     1
  0
DICTIONARY
  5
D
102
{ACAD_REACTORS
330
C
102
}
330
C
100
AcDbDictionary
281
     1
  3
*A1
350
11AB
  3
*A10
350
7637
  3
*A11
350
5CE8
  3
*A12
350
2EDC
  3
*A13
350
3A35
  3
*A14
350
332B
  3
*A15
350
3A32
  3
*A16
350
55CE
  3
*A17
350
3B49
  3
*A18
350
3588
  3
*A19
350
3584
  3
*A2
350
38A6
  3
*A20
350
3302
  3
*A21
350
333C
  3
*A22
350
26E7
  3
*A23
350
3586
  3
*A24
350
2329
  3
*A25
350
55CF
  3
*A26
350
3BB0
  3
*A27
350
3585
  3
*A28
350
252A
  3
*A29
350
3BB1
  3
*A3
350
2328
  3
*A30
350
2D77
  3
*A31
350
3587
  3
*A32
350
377D
  3
*A33
350
7182
  3
*A34
350
7C09
  3
*A35
350
7C0B
  3
*A36
350
26E6
  3
*A37
350
377B
  3
*A38
350
2DDC
  3
*A39
350
2327
  3
*A4
350
7C0D
  3
*A40
350
3A33
  3
*A41
350
3AC8
  3
*A42
350
1FB1
  3
*A43
350
377E
  3
*A44
350
3257
  3
*A45
350
5A71
  3
*A46
350
7ABC
  3
*A47
350
7C08
  3
*A48
350
5A72
  3
*A49
350
1F7B
  3
*A5
350
2E2C
  3
*A50
350
3A34
  3
*A51
350
7C0C
  3
*A52
350
7638
  3
*A53
350
2CFD
  3
*A54
350
3589
  3
*A55
350
377A
  3
*A56
350
5CE7
  3
*A57
350
377F
  3
*A58
350
3B4A
  3
*A59
350
377C
  3
*A6
350
2F7B
  3
*A7
350
7ABD
  3
*A8
350
7C0A
  3
*A9
350
7181
  3
1
350
3316
  3
2009
350
CE6
  3
B1
350
57B
  3
DAN
350
2C76
  3
LSQ
350
10A0
  3
P
350
31D8
  3
P1
350
1BF8
  3
P2
350
1BF9
  3
T
350
4D90
  3
T1
350
577
  3
T2
350
578
  3
T3
350
579
  3
T4
350
57A
  3
TE
350
57C
  0
DICTIONARY
  5
5391
102
{ACAD_REACTORS
330
C
102
}
330
C
100
AcDbDictionary
281
     1
  3
\M+5B2BC\M+5BED61
350
5394
  3
MODEL
350
5393
  0
DICTIONARY
  5
538F
102
{ACAD_REACTORS
330
C
102
}
330
C
100
AcDbDictionary
281
     1
  0
DICTIONARY
  5
1B
102
{ACAD_REACTORS
330
C
102
}
330
C
100
AcDbDictionary
281
     1
  3
STANDARD
350
1C
  0
DICTIONARY
  5
5392
102
{ACAD_REACTORS
330
C
102
}
330
C
100
AcDbDictionary
281
     1
  0
ACDBDICTIONARYWDFLT
  5
538D
102
{ACAD_REACTORS
330
C
102
}
330
C
100
AcDbDictionary
281
     1
  3
NORMAL
350
538E
100
AcDbDictionaryWithDefault
340
538E
  0
ACAD_PROXY_OBJECT
  5
8353
330
C
100
AcDbProxyObject
 90
      499
 91
      521
 95
   851991
 70
     0
 93
       10
310
4040
 94
        0
  0
DICTIONARY
  5
2867
102
{ACAD_REACTORS
330
C
102
}
330
C
100
AcDbDictionary
281
     1
  3
DIMASSOC
350
834C
  3
HIDETEXT
350
834D
  3
SORTENTS
350
834B
  0
DICTIONARY
  5
87FF
102
{ACAD_REACTORS
330
C
102
}
330
C
100
AcDbDictionary
281
     1
  3
ASEBlockHierarchyIndexRecord
350
8800
1001
DCO15
1040
1691411734.092999
  0
GROUP
  5
11AB
102
{ACAD_REACTORS
330
D
102
}
330
D
100
AcDbGroup
300

 70
     1
 71
     1
  0
GROUP
  5
7637
102
{ACAD_REACTORS
330
D
102
}
330
D
100
AcDbGroup
300

 70
     1
 71
     1
  0
GROUP
  5
5CE8
102
{ACAD_REACTORS
330
D
102
}
330
D
100
AcDbGroup
300

 70
     1
 71
     1
  0
GROUP
  5
2EDC
102
{ACAD_REACTORS
330
D
102
}
330
D
100
AcDbGroup
300

 70
     1
 71
     1
  0
GROUP
  5
3A35
102
{ACAD_REACTORS
330
D
102
}
330
D
100
AcDbGroup
300

 70
     1
 71
     1
  0
GROUP
  5
332B
102
{ACAD_REACTORS
330
D
102
}
330
D
100
AcDbGroup
300

 70
     1
 71
     1
  0
GROUP
  5
3A32
102
{ACAD_REACTORS
330
D
102
}
330
D
100
AcDbGroup
300

 70
     1
 71
     1
  0
GROUP
  5
55CE
102
{ACAD_REACTORS
330
D
102
}
330
D
100
AcDbGroup
300

 70
     1
 71
     1
  0
GROUP
  5
3B49
102
{ACAD_REACTORS
330
D
102
}
330
D
100
AcDbGroup
300

 70
     1
 71
     1
  0
GROUP
  5
3588
102
{ACAD_REACTORS
330
D
102
}
330
D
100
AcDbGroup
300

 70
     1
 71
     1
  0
GROUP
  5
3584
102
{ACAD_REACTORS
330
D
102
}
330
D
100
AcDbGroup
300

 70
     1
 71
     1
  0
GROUP
  5
38A6
102
{ACAD_REACTORS
330
D
102
}
330
D
100
AcDbGroup
300

 70
     1
 71
     1
  0
GROUP
  5
3302
102
{ACAD_REACTORS
330
D
102
}
330
D
100
AcDbGroup
300

 70
     1
 71
     1
  0
GROUP
  5
333C
102
{ACAD_REACTORS
330
D
102
}
330
D
100
AcDbGroup
300

 70
     1
 71
     1
  0
GROUP
  5
26E7
102
{ACAD_REACTORS
330
D
102
}
330
D
100
AcDbGroup
300

 70
     1
 71
     1
  0
GROUP
  5
3586
102
{ACAD_REACTORS
330
D
102
}
330
D
100
AcDbGroup
300

 70
     1
 71
     1
  0
GROUP
  5
2329
102
{ACAD_REACTORS
330
D
102
}
330
D
100
AcDbGroup
300

 70
     1
 71
     1
  0
GROUP
  5
55CF
102
{ACAD_REACTORS
330
D
102
}
330
D
100
AcDbGroup
300

 70
     1
 71
     1
  0
GROUP
  5
3BB0
102
{ACAD_REACTORS
330
D
102
}
330
D
100
AcDbGroup
300

 70
     1
 71
     1
  0
GROUP
  5
3585
102
{ACAD_REACTORS
330
D
102
}
330
D
100
AcDbGroup
300

 70
     1
 71
     1
  0
GROUP
  5
252A
102
{ACAD_REACTORS
330
D
102
}
330
D
100
AcDbGroup
300

 70
     1
 71
     1
  0
GROUP
  5
3BB1
102
{ACAD_REACTORS
330
D
102
}
330
D
100
AcDbGroup
300

 70
     1
 71
     1
  0
GROUP
  5
2328
102
{ACAD_REACTORS
330
D
102
}
330
D
100
AcDbGroup
300

 70
     1
 71
     1
  0
GROUP
  5
2D77
102
{ACAD_REACTORS
330
D
102
}
330
D
100
AcDbGroup
300

 70
     1
 71
     1
  0
GROUP
  5
3587
102
{ACAD_REACTORS
330
D
102
}
330
D
100
AcDbGroup
300

 70
     1
 71
     1
  0
GROUP
  5
377D
102
{ACAD_REACTORS
330
D
102
}
330
D
100
AcDbGroup
300

 70
     1
 71
     1
  0
GROUP
  5
7182
102
{ACAD_REACTORS
330
D
102
}
330
D
100
AcDbGroup
300

 70
     1
 71
     1
  0
GROUP
  5
7C09
102
{ACAD_REACTORS
330
D
102
}
330
D
100
AcDbGroup
300

 70
     1
 71
     1
340
7C69
340
7C1F
340
7C1E
340
7C1D
340
7C1C
340
7C1B
340
7C1A
340
7C19
340
7C18
340
7C17
340
7C11
340
7C10
340
7C0F
340
7C6B
340
7C12
340
7C26
340
7C22
340
7C25
340
7C24
340
7C23
340
7C27
340
7C28
340
7C29
340
7C6A
340
7C13
340
7C4E
340
7C4D
340
7C48
340
7C44
340
7C43
340
7C42
340
7C41
340
7C40
340
7C3F
340
7C38
340
7C21
340
7C20
340
7C16
340
7C15
340
7C2A
340
7C2D
340
7C2C
340
7C2B
340
7C2F
340
7C2E
340
7C34
340
7C33
340
7C35
340
7C37
340
7C30
340
7C31
340
7C3B
340
7C3A
340
7C39
340
7C4B
340
7C4A
340
7C49
340
7C50
340
7C4F
340
7C46
340
7C45
340
7C3E
340
7C3D
340
7C3C
340
7C14
340
7C32
340
7C36
340
7C51
340
7C47
340
7C4C
340
7C65
340
7C57
340
7C56
340
7C55
340
7C54
340
7C58
340
7C5D
340
7C5B
340
7C5C
340
7C5A
340
7C53
340
7C59
340
7C5E
340
7C52
340
7C63
340
7C67
340
7C66
340
7C62
340
7C64
340
7C68
340
7C60
340
7C5F
340
7C61
  0
GROUP
  5
7C0B
102
{ACAD_REACTORS
330
D
102
}
330
D
100
AcDbGroup
300

 70
     0
 71
     1
  0
GROUP
  5
26E6
102
{ACAD_REACTORS
330
D
102
}
330
D
100
AcDbGroup
300

 70
     1
 71
     1
  0
GROUP
  5
377B
102
{ACAD_REACTORS
330
D
102
}
330
D
100
AcDbGroup
300

 70
     1
 71
     1
  0
GROUP
  5
2DDC
102
{ACAD_REACTORS
330
D
102
}
330
D
100
AcDbGroup
300

 70
     1
 71
     1
  0
GROUP
  5
2327
102
{ACAD_REACTORS
330
D
102
}
330
D
100
AcDbGroup
300

 70
     1
 71
     1
  0
GROUP
  5
7C0D
102
{ACAD_REACTORS
330
D
102
}
330
D
100
AcDbGroup
300

 70
     0
 71
     1
  0
GROUP
  5
3A33
102
{ACAD_REACTORS
330
D
102
}
330
D
100
AcDbGroup
300

 70
     1
 71
     1
  0
GROUP
  5
3AC8
102
{ACAD_REACTORS
330
D
102
}
330
D
100
AcDbGroup
300

 70
     1
 71
     1
  0
GROUP
  5
1FB1
102
{ACAD_REACTORS
330
D
102
}
330
D
100
AcDbGroup
300

 70
     1
 71
     1
  0
GROUP
  5
377E
102
{ACAD_REACTORS
330
D
102
}
330
D
100
AcDbGroup
300

 70
     1
 71
     1
  0
GROUP
  5
3257
102
{ACAD_REACTORS
330
D
102
}
330
D
100
AcDbGroup
300

 70
     1
 71
     1
  0
GROUP
  5
5A71
102
{ACAD_REACTORS
330
D
102
}
330
D
100
AcDbGroup
300

 70
     1
 71
     1
  0
GROUP
  5
7ABC
102
{ACAD_REACTORS
330
D
102
}
330
D
100
AcDbGroup
300

 70
     1
 71
     1
  0
GROUP
  5
7C08
102
{ACAD_REACTORS
330
D
102
}
330
D
100
AcDbGroup
300

 70
     0
 71
     1
  0
GROUP
  5
5A72
102
{ACAD_REACTORS
330
D
102
}
330
D
100
AcDbGroup
300

 70
     1
 71
     1
  0
GROUP
  5
1F7B
102
{ACAD_REACTORS
330
D
102
}
330
D
100
AcDbGroup
300

 70
     1
 71
     1
  0
GROUP
  5
2E2C
102
{ACAD_REACTORS
330
D
102
}
330
D
100
AcDbGroup
300

 70
     1
 71
     1
  0
GROUP
  5
3A34
102
{ACAD_REACTORS
330
D
102
}
330
D
100
AcDbGroup
300

 70
     1
 71
     1
  0
GROUP
  5
7C0C
102
{ACAD_REACTORS
330
D
102
}
330
D
100
AcDbGroup
300

 70
     0
 71
     1
  0
GROUP
  5
7638
102
{ACAD_REACTORS
330
D
102
}
330
D
100
AcDbGroup
300

 70
     1
 71
     1
  0
GROUP
  5
2CFD
102
{ACAD_REACTORS
330
D
102
}
330
D
100
AcDbGroup
300

 70
     1
 71
     1
  0
GROUP
  5
3589
102
{ACAD_REACTORS
330
D
102
}
330
D
100
AcDbGroup
300

 70
     1
 71
     1
  0
GROUP
  5
377A
102
{ACAD_REACTORS
330
D
102
}
330
D
100
AcDbGroup
300

 70
     1
 71
     1
  0
GROUP
  5
5CE7
102
{ACAD_REACTORS
330
D
102
}
330
D
100
AcDbGroup
300

 70
     1
 71
     1
  0
GROUP
  5
377F
102
{ACAD_REACTORS
330
D
102
}
330
D
100
AcDbGroup
300

 70
     1
 71
     1
  0
GROUP
  5
3B4A
102
{ACAD_REACTORS
330
D
102
}
330
D
100
AcDbGroup
300

 70
     1
 71
     1
  0
GROUP
  5
377C
102
{ACAD_REACTORS
330
D
102
}
330
D
100
AcDbGroup
300

 70
     1
 71
     1
  0
GROUP
  5
2F7B
102
{ACAD_REACTORS
330
D
102
}
330
D
100
AcDbGroup
300

 70
     1
 71
     1
  0
GROUP
  5
7ABD
102
{ACAD_REACTORS
330
D
102
}
330
D
100
AcDbGroup
300

 70
     1
 71
     1
  0
GROUP
  5
7C0A
102
{ACAD_REACTORS
330
D
102
}
330
D
100
AcDbGroup
300

 70
     0
 71
     1
  0
GROUP
  5
7181
102
{ACAD_REACTORS
330
D
102
}
330
D
100
AcDbGroup
300

 70
     1
 71
     1
  0
GROUP
  5
3316
102
{ACAD_REACTORS
330
D
102
}
330
D
100
AcDbGroup
300

 70
     0
 71
     1
  0
GROUP
  5
CE6
102
{ACAD_REACTORS
330
D
102
}
330
D
100
AcDbGroup
300

 70
     0
 71
     1
  0
GROUP
  5
57B
102
{ACAD_REACTORS
330
D
102
}
330
D
100
AcDbGroup
300

 70
     0
 71
     1
  0
GROUP
  5
2C76
102
{ACAD_REACTORS
330
D
102
}
330
D
100
AcDbGroup
300

 70
     0
 71
     1
  0
GROUP
  5
10A0
102
{ACAD_REACTORS
330
D
102
}
330
D
100
AcDbGroup
300

 70
     0
 71
     1
  0
GROUP
  5
31D8
102
{ACAD_REACTORS
330
D
102
}
330
D
100
AcDbGroup
300

 70
     0
 71
     1
  0
GROUP
  5
1BF8
102
{ACAD_REACTORS
330
D
102
}
330
D
100
AcDbGroup
300

 70
     0
 71
     1
  0
GROUP
  5
1BF9
102
{ACAD_REACTORS
330
D
102
}
330
D
100
AcDbGroup
300

 70
     0
 71
     1
  0
GROUP
  5
4D90
102
{ACAD_REACTORS
330
D
102
}
330
D
100
AcDbGroup
300

 70
     0
 71
     1
  0
GROUP
  5
577
102
{ACAD_REACTORS
330
D
102
}
330
D
100
AcDbGroup
300

 70
     0
 71
     1
  0
GROUP
  5
578
102
{ACAD_REACTORS
330
D
102
}
330
D
100
AcDbGroup
300

 70
     0
 71
     1
  0
GROUP
  5
579
102
{ACAD_REACTORS
330
D
102
}
330
D
100
AcDbGroup
300

 70
     0
 71
     1
  0
GROUP
  5
57A
102
{ACAD_REACTORS
330
D
102
}
330
D
100
AcDbGroup
300

 70
     0
 71
     1
  0
GROUP
  5
57C
102
{ACAD_REACTORS
330
D
102
}
330
D
100
AcDbGroup
300

 70
     0
 71
     1
  0
LAYOUT
  5
5394
102
{ACAD_REACTORS
330
5391
102
}
330
5391
100
AcDbPlotSettings
  1

  2
\\Server\EPSON EPL-1220 Advanced
  4

  6

 40
0.0
 41
0.0
 42
0.0
 43
0.0
 44
0.0
 45
0.0
 46
0.0
 47
0.0
 48
0.0
 49
0.0
140
0.0
141
0.0
142
1.0
143
1.0
 70
   688
 72
     0
 73
     0
 74
     5
  7

 75
    16
147
1.0
148
0.0
149
0.0
100
AcDbLayout
  1
\M+5B2BC\M+5BED61
 70
     1
 71
     1
 10
0.0
 20
0.0
 11
420.0
 21
297.0
 12
0.0
 22
0.0
 32
0.0
 14
1.000000000000000E+20
 24
1.000000000000000E+20
 34
1.000000000000000E+20
 15
-1.000000000000000E+20
 25
-1.000000000000000E+20
 35
-1.000000000000000E+20
146
0.0
 13
0.0
 23
0.0
 33
0.0
 16
1.0
 26
0.0
 36
0.0
 17
0.0
 27
1.0
 37
0.0
 76
     0
330
15
  0
LAYOUT
  5
5393
102
{ACAD_REACTORS
330
5391
102
}
330
5391
100
AcDbPlotSettings
  1

  2
\\LISA\EPSON EPL-1220 Advanced
  4
A4
  6

 40
5.87375
 41
5.873747999999999
 42
5.873749
 43
5.873749
 44
209.973328
 45
297.0106509999999
 46
0.0
 47
5.0
 48
4450.026595229945
 49
2877.193045344783
140
6054.026595229943
141
4025.193045344781
142
1.0
143
5.791374442933962
 70
 11952
 72
     1
 73
     1
 74
     4
  7

 75
     0
147
0.1726705827526135
148
-4450.026595229945
149
-2877.193045344783
100
AcDbLayout
  1
MODEL
 70
     1
 71
     0
 10
0.0
 20
0.0
 11
12.0
 21
9.0
 12
0.0
 22
0.0
 32
0.0
 14
0.0
 24
0.0
 34
0.0
 15
0.0
 25
0.0
 35
0.0
146
0.0
 13
0.0
 23
0.0
 33
0.0
 16
1.0
 26
0.0
 36
0.0
 17
0.0
 27
1.0
 37
0.0
 76
     0
330
18
  0
MLINESTYLE
  5
1C
102
{ACAD_REACTORS
330
1B
102
}
330
1B
100
AcDbMlineStyle
  2
STANDARD
 70
     0
  3

 62
   256
 51
90.0
 52
90.0
 71
     2
 49
0.5
 62
   256
  6
BYLAYER
 49
-0.5
 62
   256
  6
BYLAYER
  0
ACDBPLACEHOLDER
  5
538E
102
{ACAD_REACTORS
330
538D
102
}
330
538D
  0
DICTIONARYVAR
  5
834C
102
{ACAD_REACTORS
330
2867
102
}
330
2867
100
DictionaryVariables
280
     0
  1
1
  0
DICTIONARYVAR
  5
834D
102
{ACAD_REACTORS
330
2867
102
}
330
2867
100
DictionaryVariables
280
     0
  1
0
  0
DICTIONARYVAR
  5
834B
102
{ACAD_REACTORS
330
2867
102
}
330
2867
100
DictionaryVariables
280
     0
  1
96
  0
XRECORD
  5
8800
102
{ACAD_REACTORS
330
87FF
102
}
330
87FF
100
AcDbXrecord
280
     1
330
576
330
8368
330
7BD5
330
7BD6
330
572
330
7C6C
  0
ENDSEC
  0
EOF
